Song name
# A B C D E F G H I J K L M N O P Q R S T U V W X Y Z

Daniel Johnston - Despair Came Knockin tab

the whole song is only the following:

E|-----------------|-----------------|
B|---4---4---4---4-|---4---4---4---4-|
G|-5---5---5---4---|-4---4---4---4---|
D|-----------------|-----------------|
A|-----------------|-----------------|
E|-----------------|-----------------|

E|-----------------|-----------------|
B|---4---4---4---4-|---4---4---4---4-|
G|-3---3---3---3---|-2---2---2---2---|
D|-----------------|-----------------|
A|-----------------|-----------------|
E|-----------------|-----------------|

repeat until the song ends
Tap to rate this tab
# A B C D E F G H I J K L M N O P Q R S T U V W X Y Z