Song name
# A B C D E F G H I J K L M N O P Q R S T U V W X Y Z

Daniel Johnston - Story Of An Artist tab

Title:Story of an Artist
Artist: Daniel Johnston


Capo 1
Standard Tuning



e----2-3-------------------2-3---------------------------------------|
b----------3-0-------------------3-0---------------------------------|
g----------------2-2\4-----------------2-2\5-------------------------|
d--------------------------------------------------------------------|
a--------------------------------------------------------------------|
e--------------------------------------------------------------------|


e----2-3-------------------2-3---------------------------------------|
b----------3-0-------------------3-0---------------------------------|
g----------------2-2\5-----------------2-2\4-------------------------|
d--------------------------------------------------------------------|
a--------------------------------------------------------------------|
e--------------------------------------------------------------------|

Repeat throughout entire song


Tap to rate this tab
# A B C D E F G H I J K L M N O P Q R S T U V W X Y Z