Song name
# A B C D E F G H I J K L M N O P Q R S T U V W X Y Z

Daniel Landa - Krysar A Osud tab

Help us improve GuitareTab! Take a short survey!
    Ami               Ami              C        G
E|--------------------------------------------------------3--|
H|--------1-0---------------1-0---0-1--------1--------3------|
G|------2-----0-----------2-----0----------0--------0--------|
D|----2-----------------2----------------2--------0----------|
A|--0-----------------0----------------3---------------------|
E|----------------------------------------------3------------|

    G                F            Ami          C        F
E|------------------------------------------------------------1---|
H|--------0-1p0------------1p0----------1p0----------1------1-----|
G|------0-------2-0------2-----2------2-----2------0------2-------|
D|----0----------------3------------2------------2------3---------|
A|--------------------------------0------------3------------------|
E|--3----------------1--------------------------------------------|

    Emi     Dmi         Ami
E|-------0-----1----------------------|
H|------0-----3---------------1-0-----|
G|-----0-----2--------------2-----0---|
D|----2-----0-------------2-----------|
A|---2------------3-2---0-------------|
E|--0---------------------------------|

play Verse

**Verse 1**

KRYSAŘ:

Kam se řt
tahle situace?
Kdo ji chyt?
Legrace bez legrace.
Kvůli mně se
země třese.
J si neurčil
vlastně cl.

**Verse 2**
OSUD:

On se div,
snad měl lidi rd...
Zeediv,
jestli se tak bude ptt.
Kvůli MNĚ! se
země třese.
J jsem jeho dl
předurčil!

**Verse**
KRYSAŘ:

Do propasti
sthnu vechny s sebou.

OSUD:

Kosti chrast.
Pak ho ruce zazebou!

KRYSAŘ:

Ltost dn,
pomsta chladn.
d si svou zteč!

OSUD:

Moje řeč!

**chorus**
KRYSAŘ:
Dmi
 Pro jejich pchu svrb mne ruce!
Ami
 Tak jako kmen j teď' mm srdce.
G
 Lidi jsou zl a ivot je v szce
Ami
 pro ty co, nepřejou, nepřejou lsce!
D
 Mon nev, e jsem lidsk bytost.
Ami
 koda. Je pozdě. U neznm ltost.

G
 Pohnou se skly, bude to brzy...
Ami
 Budu se smt, a potečou slzy!!!

(mezihra)
   Am                                        Am
E|-----------5--3--0----------------------------------5--3--0------|
H|--------5----------------------------------------5---------------|
G|-----5----------------------------------------5------------------|
D|--7----------------------------------------7---------------------|
A|-----------------------------------------------------------------|
E|-----------------------------------------------------------------|


    C          G
E|--3----------7------------------------------------------|
H|--5----------8---------------------------0--1h-0--------|
G|--5----------7------------------------0-----------2--0--|
D|-----------------------------------0--------------------|
A|--------------------------------------------------------|
E|--------------------------------3-----------------------|


  F                       Am                      C           F
E|-----------------------------------------------------------------------1--|
H|-----------1h-0--------------------1h-0--------------------1--------1-----|
G|--------2--------2--------------2--------2--------------0--------2--------|
D|-----3-----------------------2-----------------------2--------3-----------|
A|--------------------------0-----------------------3-----------------------|
E|--1-----------------------------------------------------------------------|


  Em       D                       Am
E|--------------------------------------------------------------------------|
H|--0--------3-------------------------------1--0---------------------------|
G|--0--------2----------------------------2--------0------------------------|
D|--2--------0-------------------------2------------------------------------|
A|--2--------0--------------3--2----0---------------------------------------|
E|--0-----------------------------------------------------------------------|


  Am                         C           G
E|------------------------------------------------------3--------|
H|-----------1--0-----0--1-------------1-----------3-------------|
G|--------2--------0----------------0-----------0----------------|
D|-----2-------------------------2-----------0-------------------|
A|--0-------------------------3----------------------------------|
E|----------------------------------------3----------------------|


                            F                        Am
E|--------------------------------------------------------------------------|
H|-----------0--1h-0-------------------1h-0--------------------1h-0---------|
G|--------0-----------2--0----------2--------2--------------2--------2------|
D|-----0-------------------------3-----------------------2------------------|
A|----------------------------------------------------0---------------------|
E|--3-------------------------1---------------------------------------------|


  C           F              Em       D
E|-----------------------1----------------------------------|
H|-----------1--------1-------0--------3--------------------|
G|--------0--------2----------0--------2--------------------|
D|-----2--------3-------------2--------0--------------------|
A|--3-------------------------2--------0--------------3--2--|
E|----------------------------0-----------------------------|

**Verse(again)**
OSUD:

On si breč,
je to egoista.
Vdyť mi vděč
za to, co jsem přichystal.
Dky dn...
Srdce zrdn.
Vdyť, a bude klid,
můe jt.

**chorus**
SBOR:

Pro lidskou pchu svrb ho ruce.
Tak jako kmen ztvrdlo mu srdce.
Lid jsou lid a ivot je v szce.
Nepřeje těst, nepřeje lsce.
A u se nev, kdo je lidsk bytost.
Z určitch důvodů trp ns ltost.
Pohnou se skly, bude to brzy.
Bude to k smchu, a potečou slzy?
Bude to k smchu, a potečou slzy?

http://www.daniellanda.cz/
Related for Krysar A Osud tab