Song name
# A B C D E F G H I J K L M N O P Q R S T U V W X Y Z

Daniel Lanois - Sonho Dourado tab

SONHO DOURADO - Daniel Lanois

Tabbed by:  Avi Yaacov (avi.yaacov.2012@gmail.com)
Country:    Israel
Date:       December 2, 2012


Loved this amazing guitar piece from the first time I heard it on the soundtrack of that 
movie I canít remember (which I bought thanks to EITS).
It reminded me of the sound that Daniel Lanois probably had gotten into some U2 albums, 
or maybe itís the other way around. On any case, itís incredible.

I tabbed it out specifically in order for it to be easily played on any guitar, so you 
can change locations on the fretboard according to your liking once you get the hang of it.
- - Itís a MUST to play along with the song in order to understand how to play it.

Note: this is definitely not a perfect tab, but I think it does an ok job at giving a 
good direction of how to play this thing.


~ Goodluck & ENJOY!



e|---------------------4---------|---------------------|
B|---------------------------4---|---------------------|
G|--4h6-8---8-6/4------------4---|---4-4h6-4h6b-4-(3)--|
D|----------------4-6-----4------|-----------------4---|
A|-------------------------------|-----------------4---|
E|-------------------------------|-----------------2---|




e|----------------|-------4-6---------6-7----7-6-4----------------------------|
B|--2h4-2h4b-2----|-----5----------/7-----------------0-5-7b-4----------------|
G|-------------4--|--/4--------(6)-----------------------------6-4-4h6--4-4---|
D|----------------|-------------------------------------------------------4---|
A|----------------|-------------------------------------------------------2---|
E|----------------|-----------------------------------------------------------|


e|----------------------------------------------------------------------|
B|----4h5/7vv--4-2-0h2p0------0-----------------------------------------|
G|--4--------------------1vv--------------------------------------------|
D|------------------------------/4-4v---2h4p2/1--/4--/9--/8--/9--/11----|
A|----------------------------------------------------------------------|
E|----------------------------------------------------------------------|

e|----6-------------------6/7--------------------------------|
B|--7------0h9/11-11----7--------7-9----7b--4-2--------------|
G|------------------------------------9---------4-4/6--4-4---|
D|-------------------------------------------------------4---|
A|-----------------------------------------------------------|
E|-----------------------------------------------------------|


e|------------------------------------------|--------------------------------------|
B|----4-4-4-4--2-2-2h4----2h4p2---9---7-7---|--------------------------------------|
G|----4-4-4-4--------4------------9---8-8---|---8h9/11-11--9h11p9/8--/6--/4---/6---|
D|----4-4-4-4--------4------------9---9-9---|---9----------------------------------|
A|--------------------------------7---9-9---|---9----------------------------------|
E|------------------------------------------|--------------------------------------|


{1:10)
e|---6-------------|------4-6--------6-7---6h7-6h7p6/4-------------------------|
B|-----------------|----5--------0-7---------------------5--7--4--2--0--2--0-0-|
G|---6h8p6--6h8p6--|--4--------------------------------------------------------|
D|-----------------|-----------------------------------------------------------|
A|-----------------|-----------------------------------------------------------|
E|-----------------|-----------------------------------------------------------|



e|------------------------------|------------------------------|
B|--4-4-2-2-2/4-4v---/7--5-4-4--|--0h4h5/7---4p2-0h2p0---0h2---|
G|------------------------------|----------------------3-------|
D|------------------------------|------------------------------|
A|------------------------------|------------------------------|
E|------------------------------|------------------------------|


e|----------------------4/6-----6-7--7/11-11-11-11/12--|---------------------------|
B|-----------------------------------------------------|--5h7-5h7-4-2-0-0h2--0-0---|
G|--6/8/6-4-3---------------6--------------------------|---------------------------|
D|---------------2-4/6---------------------------------|---------------------------|
A|-----------------------------------------------------|---------------------------|
E|-----------------------------------------------------|---------------------------|


e|--/11--11-11-11-9-9-9-11-11-11-------------------------0--2-2----|
B|-------------------------------------------------------0--4-4----|
G|-------------------------------------------------------1--4-4----|
D|-------------------------------------------------------2--4-4----|
A|-------------------------------------------------------2--2-2----|
E|--------------------------------12/pull to neck head---0---------|

                                                                                  {2:17)
e|-----------7--6/7v-7--6--|-------------4-6--------6-7--6h7p6/4---2-2------------------|
B|--0h4h5/7----------------|---4bp2----5--------0-7--------------------4-2p0-0h2b--(0)--|
G|-------------------------|---------4--------------------------------------------------|
D|-------------------------|------------------------------------------------------------|
A|-------------------------|------------------------------------------------------------|
E|-------------------------|------------------------------------------------------------|



e|-----------------------------|--------------------------|
B|--4-4---4-2------------------|-------------4-2-------2--|
G|--4-4---4---4----------------|-------------4---4-3-4----|
D|--------------4/6--4/6--4-4--|--4h6p4/------------------|
A|-----------------------------|---------2----------------|
E|-----------------------------|--------------------------|



e|----------------4-6--------6-7-6/7--6-4--------4-2----------------|
B|--2/4-2-------5--------5/7-------------------5-----4-2p0-0h2br0---|
G|------------4------------------------------4----------------------|
D|------------------------------------------------------------------|
A|------------------------------------------------------------------|
E|------------------------------------------------------------------|


[2:45]

e|-------------------------4/6----6/11/9-7-6-4-----4-2------7-6---2/6-7---|
B|----------4------------------------------------4--------7---------------|
G|---4-3-/4-------------1-------6-----------------------------------------|
D|--------------------2---------------------------------------------------|
A|------------------2-----------------------------------------------------|
E|------------------------------------------------------------------------|


e|--11/pull to neck head---4-----2-2-------------------|
B|-------------------------5---------4-2p0-0h2br0--0---|
G|-------------------------4-----------------------4---|
D|-------------------------------------------------4---|
A|-----------------------------------------------------|
E|-------------------------0---------------------------|

e|----------------------------------|
B|--4p2-------4p2-------4-/5--4-----|
G|------4---------4-----------4-----|
D|--------4---------4---------4-----|
A|----------------------------2-----|
E|----------------------------------|
Tap to rate this tab
 
# A B C D E F G H I J K L M N O P Q R S T U V W X Y Z