Song name
# A B C D E F G H I J K L M N O P Q R S T U V W X Y Z

Daniel Licht - Party Acoustic tab

                                Daniel Licht - Party                                       

As arranged by keithus777 in http://www.youtube.com/watch?v=o6r8dkRSBEI,
there's probably a few minor errors here and there but if you watch the 
video you'll get the gist of it. I've also ignored the picking for 
simplicity's sake, anyway, enjoy.
                                                                   

(Capo 3)



     Q.     Q    E  E  E     W                   Q.     Q    E  E  E   
E||---------0----0--0--0--|--3----------------|--5------5----5--5--5--|
B||---------0----0--0--0--|--3----------------|--5------5----5--5--5--|
G||---------0----0--0--0--|--4----------------|--6------6----6--6--6--|
D||--2------2----2--2--2--|--5----------------|--7------7-------7-----|
A||--2------2-------2-----|--5----------------|--0------0-------0-----|
E||--0------0-------0-----|--3----------------|-----------------------|


  W                   Q.     Q    E  E  E     Q    E  Q    E  E  E   
--0----------------|---------0-------------|------------------------|
--1----------------|---------0-------------|--0----0--0----0--0--0--|
--2----------------|---------0-------------|--2----2--4----4--2--0--|
--2----------------|--2------2----2--0-----|--1----1--1----1--1--1--|
--3----------------|--2------2----------0--|--2----2--2----2--2--2--|
-------------------|--0------0-------------|--0----0--0----0--0--0--|


  Q    E  Q    E  E  E     H.           E  E     Q.     Q    E  E  E   
----------0----0--0--0--|--L------------------|---------0----0--0--0--|
----------0----0--0--0--|--L------------------|---------0----0--0--0--|
----------0----0--0--0--|--L------------------|---------0----0--0--0--|
--2-------2----2--2--2--|--L------------------|--2------2----2--2--2--|
--2-------2-------2-----|--L------------------|--2------2-------2-----|
--0----0--0-------0-----|--L------------3--2--|--0------0-------0-----|


  Q.     Q    E  E  E     Q.     Q    E  E  E     Q.     Q    E  E  E   
--3------3----3--3--3--|--5------5----5--5--5--|--0------0----0--0--0--|
--3------3----3--3--3--|--5------5----5--5--5--|--1------1----1--1--1--|
--4------4----4--4--4--|--6------6----6--6--6--|--2------2----2--2--2--|
--5------5----5--5--5--|--7------7-------7-----|--2------2----2--2--2--|
--5------5-------5-----|--0------0-------0-----|--3------3----x-----x--|
--3------3-------3-----|-----------------------|--------------3-----3--|


  Q.     Q    E  E  E     Q    E  Q    S  S  S S  E     Q    E  Q    E  E  E   
---------0-------------|-----------------------------|----------0----0--0--0--|
---------0-------------|--0----0--0------------------|----------0----0--0--0--|
---------0-------------|--2----2--4----4p-2p-0-------|----------0----0--0--0--|
--2------2----2--0-----|--1----1--1------------4p-0--|--2-------2----2--2--2--|
--2------2----------0--|--2----2--2------------------|--2-------2-------2-----|
--0------0-------------|--0----0--0------------------|--0----0--0-------0-----|


  H.           E  E     Q.     Q    E  E  E     Q    Q    E  Q.      
--L------------------|---------3----3--3--3--|--5----5----5--0------|
--L------------1--3--|---------1----1--1--1--|--3----3----3--3------|
--L------------0--0--|--0------0----0--0--0--|--0----0----0--0------|
--L------------------|--2------2-------2-----|--4----4----4--4------|
--L------------------|--3------3-------3-----|--5----5----5--5------|
--L------------------|-----------------------|----------------------|


  Q    E   E  Q    E  E     E  E  Q    Q    E  E     Q.     Q    E  E  E   
-------------------------|-------------0----------|---------3----3--3--3--|
-------3s--5--3----0--3--|--L--0-------0----1--3--|---------1----1--1--1--|
-------0------0----0--0--|--L--0-------0----0--0--|--0------0----0--0--0--|
--2----------------------|--------2----2----------|--2------2-------2-----|
--2----------------------|--------2----2----------|--3------3-------3-----|
--0----------------------|-----L--0----0----------|-----------------------|


  Q    Q    E  Q.        Q    E   E  Q    E  E     E  E  Q    Q    E  E   
--5----5----5--0------|-------------------------|-------------0----------|
--3----3----3--3------|-------3s--5--3----0--3--|--L--0-------0----1--3--|
--0----0----0--0------|-------0------0----0--0--|--L--0-------0----0--0--|
--4----4----4--4------|--2----------------------|--------2----2----------|
--5----5----5--5------|--2----------------------|--------2----2----------|
----------------------|--0----------------------|--------0----0----------|


  Q.     Q    E  E  E     Q    Q    E  Q.        Q    E  E  Q    E  E   
---------3----3--3--3--|--5----5----5--0------|-------3--2--0-------0--|
---------1----1--1--1--|--3----3----3--3------|-------5--3--0-------5--|
--0------0----0--0--0--|--0----0----0--0------|-------4--2--0-------4--|
--2------2-------2-----|--4----4----4--4------|--2----0-------------0--|
--3------3-------3-----|--5----5----5--5------|--2---------------------|
-----------------------|----------------------|--0---------------0-----|


  E  E  Q    Q    E  E     Q    Q    Q    Q       Q    Q    Q    Q     
--L----------0----------|-------8----7----0----|-----------------5----|
--L--0-------0----------|----------------------|-------7----8---------|
--L--0-------0----------|----------------------|----------------------|
--L-----2----2----------|----------------------|----------------------|
--------2----2----0--2--|--3-------------------|--5-------------------|
--------0----0----------|----------------------|----------------------|


  Q.     Q    E  E  E     W                        
---------3----3--3--3--|--2----------------|-----||
---------1----1--1--1--|--3----------------|-----||
--0------0----0--0--0--|--2----------------|-----||
--2------2-------2-----|--0----------------|-----||
--3------3-------3-----|-------------------|-----||
-----------------------|-------------------|-----||




Duration Legend
---------------
W - whole
H - half
Q - quarter
E - 8th
S - 16th
T - 32nd
X - 64th
. - note dotted
|-n-|  - n-tuplets


Tablature Legend
----------------
L - tied note
x - dead note
g - grace note
(n) - ghost note
> - accentuded note
NH - natural harmonic
AH - artificial harmonic
TH - tapped harmonic
SH - semi harmonic
PH - pitch harmonic
h - hammer on
p - pull off
b - bend
br - bendRelease
pb - preBend
pbr - preBendRelease
brb - bendReleaseBend
\n/ - tremolo bar dip
\n - tremolo bar dive
-/n - tremolo bar Release up
/n\ - tremolo bar inverted dip
/n - tremolo bar return
-\n - tremolo bar Release down
S - shift slide
s - legato slide
/ -  slide into from below or out of upwards
\ -  slide into from above or out of downwards
~ - vibrato
W - wide vibrato
tr - trill
TP - tremolo picking
T - tapping
S - slap
P - pop
< - fade in
^ - brush up
v - brush down
Tap to rate this tab
 
# A B C D E F G H I J K L M N O P Q R S T U V W X Y Z