Song name
# A B C D E F G H I J K L M N O P Q R S T U V W X Y Z

Daniel Licht - Wink tab

Wink, by Daniel Licht, from Dexter (source: http://www.youtube.com/watch?v=tfRhBKYcHgY).

hope that's right, this is my first tab here.
enjoy!

D|-----------------------3-----5-----7---------|
A|---------------------------------------------|
F|---------------------------------------------|
C|-2-5-5---5--2-5-5---5----5-5---5-5---5-5--5-5|
G|---7-7-4-7----7-7-4-7----7-7---7-7---7-7--7-7|
C|---------------------------------------------|

D|-9-----7----------------3-----5---7-----9----|
A|---------------------------------------------|
F|---------------------------------------------|
C|---5-5---5-5-2-5-5---5----5-5---5---5-5---5-5|
G|---7-7---7-7---7-7-4-7----7-7---7---7-7---7-7|
C|---------------------------------------------|

D|-7-----5---7---------------------------------|
A|---------------------------------------------|
F|---------------------------------------------|
C|---5-5---5---5-------------------------------|
G|---7-7---7---7-------------------------------|
C|---------------------------------------------|
Tap to rate this tab
# A B C D E F G H I J K L M N O P Q R S T U V W X Y Z