Song name
# A B C D E F G H I J K L M N O P Q R S T U V W X Y Z

Daniel Licht - Party Acoustic tab

Daniel Licht - Astor's Birthday Party

This tab is not based on the YouTube videos, rather just as I hear the piece.

There are small changes throughout the song, but they follow the same chord structure so 
listen to the song for timing.

Capo on 3rd fret

Part 1

e|---0---0-----3-----5---5---5----------------------|
B|---0-----0---3-----5----5--5----------------------|
G|-----0-------4-------6-----5----------------------|
D|--------------------------------------------------|
A|--------------------------------------------------|
E|---0---------3-----5-------5----------------------|


e|---3---3-----2---2----0---0-----------------------|
B|---1-----1---0-----0--0-----0---------------------|
G|-----0---------2--------0-------------------------|
D|------------------------------2-------------------|
A|---0---------2------------------------------------|
E|----------------------0-------0--3--2-------------|


Part 2

e|---0-2-3-----3-3\5--2--2-2/3--0---0---------------|
B|-------1--1--1-1\3--0--0-0-0--0-3-----------------|
G|--------------------------------------------------|
D|----------------------------------2---------------|
A|---2---3-----3-3\5--5--5-5-5--2-------------------|
E|----------------------------------0---------------|

(The second time you play this, just slide from the 5th fret and go into Part 1)
                         |
e|---0-2-3-----3-3\5--2--2-2/3--0--2-2/3--0---------|
B|-------1--1--1-1\3--0--0-0-0--0--0------0---------|
G|--------------------------------------------------|
D|--------------------------------------------------|
A|---2---3-----3-3\5--5--5-5-5--2--2-2----2---------|
E|--------------------------------------------------|


e|---8-7--5-3-2---0---------------------------------|
B|---5------------1---------------------------------|
G|----------------0--2-----0------------------------|
D|----------------2--1--1--2------------------------|
A|---7----5-3-2------2-----2------------------------|
E|-------------------------0------------------------|


Ending

e|---0---3---5----------0-3-5-3-0-------------------|
B|---0---3---5----------0-3-5-3-0-------------------|
G|---0---4---6----------0-4-6-4-0-------------------|
D|---2---5---7----------2-5-7-5-2-------------------|
A|---2---5---7----------2-5-7-5-2-------------------|
E|---0---3---5----------0-3-5-3-0-------------------|


tabbed by Sean Sullivan (themindsnexus@hotmail.com)
Tap to rate this tab
 
# A B C D E F G H I J K L M N O P Q R S T U V W X Y Z