Song name
# A B C D E F G H I J K L M N O P Q R S T U V W X Y Z

Daniel Licht - Wink tab

Wink - Daniel Licht
Dexter OST

Riff 1 :

---------------------------------------------------|
---------------------------------------------------|
----4-4----4-4-----4-4------4--4-------------------|
----5-5----5-5-----5-5------5--5-------------------|
--7------4------7--------4-------------------------|
---------------------------------------------------|

Riff 2

---------------------------------------------------|
---------------------------------------------------|
---------------------------------------------------|
---5-5----5-5------5-5---5-5-----------------------|
---5-5----5-5------5-5---5-5-----------------------|
-6------3--------6------3--------------------------|
Tap to rate this tab
# A B C D E F G H I J K L M N O P Q R S T U V W X Y Z