Song name
# A B C D E F G H I J K L M N O P Q R S T U V W X Y Z

Daniel Licht - The End tab

Daniel Licht - The End

This is the guitar part from the song that plays in the final scene of season 4 of Dexter.

Tabbed by Dave

Tuning Drop D


e|------------------------------------------------------|
B|----------------------------------------------------1-|
G|-------1--1h3------------0----------6----6-4----------|
D|----3---------------1------------3---------------1----|
A|------------------------------4---------------3-------|
D|-3---------------1------------------------------------|

e|---------------------------------------------------------1-|
B|-------1--1-1/2--------------------------------------------|
G|-----------------------1----------0--0h1-0-------------1---|
D|--------------------3----------1------------3--------3-----|
A|----3----------------------------------------------3-------|
D|-4---------------3----------1--------------------3---------|


The End

Tap to rate this tab
# A B C D E F G H I J K L M N O P Q R S T U V W X Y Z