Song name
# A B C D E F G H I J K L M N O P Q R S T U V W X Y Z

Daniel Licht - Peaceful tab

-----------------------------------------------------------------------------
                                   PEACEFUL - Daniel Licht
-----------------------------------------------------------------------------
Tabbed by: Patrick Bozek
E-mail: patrick_bozek@hotmail.com

Tuning: Drop D (D A D G B E)

This is the 5th track from the Dexter original music score from the Dexter
Season 2/Season 3 Soundtrack. If you want a good idea of the timing for the
song, the version I was playing with was from the video I posted below.
http://www.youtube.com/watch?v=DTdmi5D2gSI


e|---------------------------------------------------------------|
B|--10--13---------10-----10--13-----10--------------------------|
G|-----------9--7------9----------9------7---9-------------------|
D|--12------10--8-----10--12-----10------8--10-------------------|
A|---------------------------------------------------------------|
D|---------------------------------------------------------------|

e|---------------------------------------------------------------|
B|--10-----13---------10-----------------------------------------|
G|--------------9---------7------9--------7-----------9----------|
D|--12--12---------10--------8------10------8--------10------12--|
A|--12---------10---------8-----10------8------8/10--------------|
D|-------------------------------------------------------10--12--|

e|---------------------5----------------------------------------------|
B|--------------------------------------------------------------0-----|
G|----------2--------4-------2-------4------2--------4--------7---6---|
D|--------------------------------------------------------------------|
A|--------3---3----5-------3---3---5------3---3----5---5----7---------|
D|--0-2-3--------5-------3-------5------3--------5--------7-----------|

e|--------------------------------------------------------------------| x2
B|------6p5----------------------0---------------------------6p5--6---|
G|------------------------5-----0----------2--------4-----------------|
D|----7---------10----------7------------------------------7----------|
A|--5---------7----7----5----------------3---3----5-----5-------------|
D|----------7---------5--------5---0-2-3--------5-----5---------------|

e|--------------------------------------------------------------------|
B|--------------------------------------------------------------0-----|
G|----------2--------4-------2-------4------2--------4--------7---6---|
D|--------------------------------------------------------------------|
A|--------3---3----5-------3---3---5------3---3----5---5----7---------|
D|--0-2-3--------5-------3-------5------3--------5--------7-----------|

e|--------------------------------------------------------------------|
B|------6p5--------------------0--------------------------------------|
G|------------------------5----0----------2--------4----------10p9-10-|
D|----7---------10----------7-----------------------------------------|
A|--5---------7----7----5---------------3---3----5---------+12--------|
D|----------7---------5--------5--0-2-3--------5-----5--+12-----------|

************************************
| /   slide up
| h   hammer-on
| p   pull-off
| +   harmonic
************************************
Tap to rate this tab
 
# A B C D E F G H I J K L M N O P Q R S T U V W X Y Z