Song name
# A B C D E F G H I J K L M N O P Q R S T U V W X Y Z

Daniel Licht - Astors Birthday Party tab

I learned this by ear, it's possible that some notes are false. I'm going to 
upload the rest of the rest once I learned it ^^ thank you and don't forget to 
rate my hand-made tab

STANDARD TUNING 



E||----10---------10-10~------||  ||----8-----------10-10~------||
B||---------11----------------||  ||---------8------------------||
G||---------------------------||  ||----------------------------||
D||-----8-------8-----8~------||  ||----10-------10----10~------||
A||---------------------------||  ||----------------------------||
E||---------------------------||  ||----------------------------||


E||----6---------6----5----------5----3--------3---------------||  
B||---------8--------------7---------------3-------------------||  
G||------------------------------------------------------------||  
D||----8-------8------7-------7-------5------------------------||  
A||------------------------------------------------------------||  
E||------------------------------------------------3~----6--5--||  
Tap to rate this tab
# A B C D E F G H I J K L M N O P Q R S T U V W X Y Z