Song name
# A B C D E F G H I J K L M N O P Q R S T U V W X Y Z

Daniel Licht - Dexter - Blood Theme tab

E|------------------------------| 
B|------------------------------| 
G|-------4-------------3--------| 
D|-----6---6---------6---6------| 
A|------------------------------| 
E|--4-------------4-------------| 

E|------------------------------| 
B|------------------------------| 
G|-------4-------------3--------| 
D|-----6---6---------6---6------| 
A|------------------------------| 
E|--0-------------0-------------| 

E|------------------------------| 
B|------------------------------| 
G|-------4-------------4--------| 
D|-----6---6---------6---6------| 
A|------------------------------| 
E|--4---------------------------| 

E|------------------------------| 
B|------------------------------| 
G|-------3-------------3--------| 
D|-----6---6---------6---6------| 
A|------------------------------| 
E|--4---------------------------| 

E|------------------------------| 
B|------------------------------| 
G|-------4-------------4--------| 
D|-----6---6---------6---6------| 
A|------------------------------| 
E|--0---------------------------| 

E|------------------------------| 
B|------------------------------| 
G|-------3-------------3--------| 
D|-----6---6---------6---6------| 
A|------------------------------| 
E|--0---------------------------| 

E|-----------------------------------| 
B|-------7---5---------4---3---------| 
G|-----------------------------------| 
D|-----6-------------6---------------| 
A|-----------------------------------| 
E|--4-------------4------------------|

E|-----------------------------------| 
B|-------7---5---------9---11---12---| 
G|-----------------------------------| 
D|-----6-------------6---------------| 
A|-----------------------------------| 
E|--0-------------0------------------|

E|-----------------------------------| 
B|-------7---5---------4---3---------| 
G|-----------------------------------| 
D|-----6-------------6---------------| 
A|-----------------------------------| 
E|--4--------------------------------|

E|-----------------------------------| 
B|-------7---5---4--------0---2------| 
G|-----------------------------------| 
D|-----6-------------6---------------| 
A|-----------------------------------| 
E|--0--------------------------------|
Tap to rate this tab
# A B C D E F G H I J K L M N O P Q R S T U V W X Y Z