Guitaretab - guitar tabs
Song name
# A B C D E F G H I J K L M N O P Q R S T U V W X Y Z

Daniel Lioneye - Roller tab

-------------------------------------------------------------------------------
			     Daneil Lioneye - Roller
-------------------------------------------------------------------------------
Tabbed by: Tim
Email: hellomynameistim@hotmail.com

Tuning: EADGBe

This song has one of the best riffs of any Daniel Lioneye song. I've put the difficulty as
"intermediate" because of the improvisational skills needed to play the solo to Linde's standard,
as with my other Daniel Lioneye tabs.

Updated 29/7/08 - Corrected final key change.

Main Riff

e|---------------------------------------------------------------------------|
B|---------------------------------------------------------------------------|
G|---------------------------------------------------------------------------|
D|-------------------5h6p5-(Trill)-------------------------------------------|
A|-------5---5-6-7-7---------------------------------------------------------|
E|-5-6-7---7-----------------------------------------------------------------|

Verse (I am a roller, and baby I'm rolling on....)

e|---------------------------------------------------------------------------|
B|---------------------------------------------------------------------------|
G|---------------------------------------------------------------------------|
D|-7------5---2--------------------------------------------------------------|
A|-7------5---2--------------------------------------------------------------|
E|-5------3---0--------------------------------------------------------------|

Chorus (I'm Rolller)                 Finish on: (I'm a roller honey bunny...)

e|-----------------------------------|---------------------------------------|
B|-----------------------------------|---------------------------------------|
G|-----------------------------------|---------------------------------------|
D|-2-2--2-2-2-5--7---2-2--2-2-2-7--5-|-2-------------------------------------|
A|-2-2--2-2-2-5--7---2-2--2-2-2-7--5-|-2-------------------------------------|
E|-0-0--0-0-0-3--5---0-0--0-0-0-5--3-|-0-------------------------------------|

For the solo, you can improvise in the E blues scale.
[ Tab from: http://www.guitaretab.com/d/daniel-lioneye/130528.html ]
e|-------------------------------------12-15---------------------------------|
B|-------------------------------12-15---------------------------------------|
G|----------------------12-14-15---------------------------------------------|
D|----------------12-14------------------------------------------------------|
A|-------12-13-14------------------------------------------------------------|
E|-12-15---------------------------------------------------------------------|

Main Riff after solo:

This is the same as the main riff, but an octave higher. Hold the trill at the end of the
riff until the chorus comes back in.

e|---------------------------------------------------------------------------|
B|---------------------------------------------------------------------------|
G|----------------------------12h13p14-(Trill)-------------------------------|
D|----------12----12-13-14-14------------------------------------------------|
A|-12-13-14----14------------------------------------------------------------|
E|---------------------------------------------------------------------------|

Key Change Chorus 1                    End on:

e|-----------------------------------|----------------------------------------|
B|-----------------------------------|----------------------------------------|
G|-----------------------------------|----------------------------------------|
D|-4-4--4-4-4-7-9---4-4--4-4-4-9--7--|-4--------------------------------------|
A|-4-4--4-4-4-7-9---4-4--4-4-4-9--7--|-4--------------------------------------|
E|-2-2--2-2-2-5-7---2-2--2-2-2-7--5--|-2--------------------------------------|

Key Change Chorus 2                   End song on:

e|----------------------------------|-----------------------------------------|
B|----------------------------------|-----------------------------------------|
G|------------4-6--------------4--6-|-----------------------------------------|
D|-6-6--6-6-6-4-6---6-6--6-6-6-4--6-|-6---------------------------------------|
A|-6-6--6-6-6-2-4---6-6--6-6-6-2--4-|-6---------------------------------------|
E|-4-4--4-4-4-------4-4--4-4-4------|-4---------------------------------------|

| /  slide up
| \  slide down
| h  hammer-on
| p  pull-off
| ~  vibrato
| +  harmonic
| x  Mute note
===============================================================================
Related for Roller tab
×
Roller