Song name
# A B C D E F G H I J K L M N O P Q R S T U V W X Y Z

Daniel Lioneye - Dope Danny tab

Daniel Lioneye - Dope Danny

Main Riff 1 (Intro&Vers)
e------------------------------------------------------------------------|
h------------------------------------------------------------------------|
g------------------------------------------------------------------------|
D------------------------------------------------------------------------|
A----------1-0---0-------------1-0---0-----------------------------------|
E-0-0-3--0-----3---3--0-0-3--0-----3-------------------------------------|

Main Riff 2 (Intro&Vers)
e------------------------------------------------------------------------|
h------------------------------------------------------------------------|
g------------------------------------------------------------------------|
D----------2-0---0-------------2-0---0-----------------------------------|
A-0-0-3--0-----3---3--0-0-3--0-----3-------------------------------------|
E------------------------------------------------------------------------|

Riff 3
e-7----------10----------------------------------------------------------|
h------------------------------------------------------------------------|
g------------------------------------------------------------------------|
D------------------------------------------------------------------------|
A------------------------------------------------------------------------|
E------------------------------------------------------------------------|

Riff 4
e------------------------------------------------------------------------|
h------------------------------------------------------------------------|
g------------------------------------------------------------------------|
D------------------------------------------------------------------------|
A----------------------0--3----------------------------------------------|
E-2-2---1-1---0-0--------------------------------------------------------|
  do  - pe   dan-ny    (explosion)

Riff 5
e-7----------10----------12----------14----------------------------------|
h------------------------------------------------------------------------|
g------------------------------------------------------------------------|
D------------------------------------------------------------------------|
A------------------------------------------------------------------------|
E------------------------------------------------------------------------|

the solo was too difficult for me :-(
Tap to rate this tab
# A B C D E F G H I J K L M N O P Q R S T U V W X Y Z