Song name
# A B C D E F G H I J K L M N O P Q R S T U V W X Y Z

Daniel Lioneye - Eldorado Baby tab

Help us improve GuitareTab! Take a short survey!
PART I
 E|------------------------------------|
 B|-(3/)5-5--3-0-----------------------|
 G|--------------1-0-------------------| x2 
 D|------------------------------------|
 A|-------------------------22-22-22-22|
 E|-------------------------00-33-00-33|              

PART II
 E|------------------------------------|
 B|-(3/)5-5--3-0-----------------------|
 G|--------------1-0-------------------| x1
 D|------------------------------------|
 A|-------------------------77-77-77-77|
 E -------------------------55-88-55-77|

 repeat this through the whole song: PART I
                                     PART II
                                     PART I
                                     PART II ....................

 Have fun................Rock'N'Roll is gonna keep me alive!
                                        
Related for Eldorado Baby tab