Song name
# A B C D E F G H I J K L M N O P Q R S T U V W X Y Z

Daniel Lioneye - International P-lover tab

Help us improve GuitareTab! Take a short survey!
Daniel Lioneye - International P-Lover

Riff 1 (Intro)
e-------------------------------------------------------------------------|
h-------------------------------------------------------------------------|
g-------------------------------------------------------------------------|
D-5-5-2-5---7--2-2-2-2-2-2-2-2--------------------------------------------|
A-5-5-2-5---7--2-2-2-2-2-2-2-2--------------------------------------------|
E-3-3-0-3---5--0-0-0-0-0-0-0-0--------------------------------------------|

Riff 2 (Vers)
e-------------------------------------------------------------------------|
h-------------------------------------------------------------------------|
g-------------------------------------------------------------------------|
D-5-5-5-2-----5-5-5-2-----5-5-5-2-----5-5-5-2-----5-5-2-7-----------------|
A-5-5-5-2-----5-5-5-2-----5-5-5-2-----5-5-5-2-----5-5-2-7-----------------|
E-3-3-3-0-----3-3-3-0-----3-3-3-0-----3-3-3-0-----3-3-0-5-----------------|

Riff 3 (pre-Chorus)
e-------------------------------------------------------------------------|
h-------------------------------------------------------------------------|
g-------------------------------------------------------------------------|
D-7-7-7-7-7-7-7-7--9--11--11-11-11-11-11-11-11-11--9--7-------------------|
A-7-7-7-7-7-7-7-7--9--11--11-11-11-11-11-11-11-11--9--7-------------------|
E-5-5-5-5-5-5-5-5--7---9---9--9--9--9--9--9--9--9--7--5-------------------|
come on, get it on  come on, turn me on...

Riff 1 (Chorus)
e-------------------------------------------------------------------------|
h-------------------------------------------------------------------------|
g-------------------------------------------------------------------------|
D-5-5-2-5---7--2-2-2-2-2-2-2-2--------------------------------------------|
A-5-5-2-5---7--2-2-2-2-2-2-2-2--------------------------------------------|
E-3-3-0-3---5--0-0-0-0-0-0-0-0--------------------------------------------|
'cause i'm an international (pussy lover)

i'm sorry that i didn't tabbed the solo, it was too difficult for me.
the intro is the same like the chorus.
Related for International P-lover tab