Song name
# A B C D E F G H I J K L M N O P Q R S T U V W X Y Z

Daniel Norgren - Whatever Turns You On chords

Highlighted       Show chord diagrams
'WHATEVER TURNS YOU ON' by Daniel Norgren
Album: Buck
Submitted by: Victor (vctrklndr[a]hotmail.com)

Tuning: Standard (E B G D A E) Capo 5th fret

        6  5  4  3  2  1
        E  A  D  G  B  E
Chords:
Gadd9:  3  0  0  4  x  x
Cmaj/G: 3  3  2  0  1  0
G:      3  2  0  0  0  3
Em:     0  2  2  0  0  0
C:      x  3  2  0  1  0
Fmaj7:  x  3  3  2  1  0


Intro and riff throughout the song:

   Gadd9      [ch]Cmaj/G[/ch] G       Em       [ch]Cmaj/G[/ch] G
e|-------------0--0--3--3-3------------0--0--3--3-3-|
B|-------------1--1--0--0-0---2-2------1--1--0--0-0-|
G|----4-4-2p0--0--0--0--0-0---0-0-2p0--0--0--0--0-0-|
D|----0-0-0p0--2--2--0--0-0-------0p0--2--2--0--0-0-|
A|-------------3--3--2--2-2------------3--3--2--2-2-|
E|-3-3-3-3-----3--3--3--3-3--0-0-0-0---3--3--3--3-3-|


Gadd9    [ch]Cmaj/G[/ch]    G
Whatever turns you on
Em          [ch]Cmaj/G[/ch]   G
Im going where youre going

Gadd9    [ch]Cmaj/G[/ch]    G
Whatever turns you on
Em             [ch]Cmaj/G[/ch]  G
Red lights and hooters blowing

Gadd9     [ch]Cmaj/G[/ch]   G
I'll ride when you ride
Em        [ch]Cmaj/G[/ch]   G
Ill crash when you crash

Gadd9     [ch]Cmaj/G[/ch]   G
I'll burn when you burn
Em          [ch]Cmaj/G[/ch]     G
In the mind and in the flesh
 
C               Fmaj7       C
Like a truck of chrome and  lights
Gadd9        [ch]Cmaj/G[/ch]            G
Running fast right through the night

e|---------------------------------|
B|---------------------------------|
G|---------------------------------| x4
D|-------------------2---2---------|
A|---2---2---2---2-3---3-----2---2-|
E|-3---3---3---3-----------3---3---|


Gadd9    [ch]Cmaj/G[/ch]    G
Whatever turns you on
Em          [ch]Cmaj/G[/ch]   G
Im going where youre going

Gadd9    [ch]Cmaj/G[/ch]    G
Whatever turns you on
Em             [ch]Cmaj/G[/ch]  G
Red lights and hooters blowing
Tap to rate this tab
# A B C D E F G H I J K L M N O P Q R S T U V W X Y Z