Song name
# A B C D E F G H I J K L M N O P Q R S T U V W X Y Z

Daniel Padilla - Nasa Iyo Na Ang Lahat tab

ako po ay sobrang poging tao kaya maniwala kayo sa hndi bahala ka ikaw rin ;))
09128290025 txt me up ! :)) first time q po mag submit ng TAB jeje !

Intro:

e---9----9-----10----10-----12-----12-----------|
B---10---10----11----11-----12-----12-----------|
G-----------------------------------------------|
D-----------------------------------------------|
A-----------------------------------------------|
E-----------------------------------------------|

Verse.

e------------------------------------------------|
B------------------------------------------------|
G--11-----9----7-----9-----11--------------------|
D--11-----9----7-----9-----11--------------------|
A---9-----7----5-----7------9--------------------|
E------------------------------------------------|



Chorus:


e----------------------------------|
B----------------------------------|
G-------9---7---9------------------|
D--7----9---7---9------------------|
A--7----7---5---7------------------|
E--5-------------------------------|


e-------------------------------------|
B-------------------------------------|
G----------------7----9---------------|
D---7------9-----7----9---------------|
A---7------9-----5----7---------------|
E---5------7--------------------------|




BAHALA na kayu jan chamba lang yan jeje !! ///_^

TNX!!
Tap to rate this tab
# A B C D E F G H I J K L M N O P Q R S T U V W X Y Z