Song name
# A B C D E F G H I J K L M N O P Q R S T U V W X Y Z

Daniel Padilla - Akoy Sayo At Ikay Akin Lamang tab

-------------------------------------------------------------------------------
                             SONG NAME - Band Name
-------------------------------------------------------------------------------
Tabbed by: Matt
E-mail: Nice Tim

Tuning:Standard
No Capo

Intro
e|-------------------------4-----|-------5-----1---5--------|
B|--------------2--3--5------5---|-----3---3---------3------|
G|------------1----------4-----4-|---2-------2---2-----2----|
D|----------2--------------------|-0-----------0------------|
A|------0-0--------2--4----------|--------------------------|
E|-0-3h--------------------------|--------------------------|

e|------------------4-----|-------5-----1-------|
B|-------2--3--5------5---|-----3---3--------1--|
G|-----1----------4-----4-|---2-------2---2h----|
D|---2--------------------|-0-----------0-------|
A|-0--------2--4----------|---------------------|
E|------------------------|---------------------|

Hope you like it dyudes!
First time ko ito mga tol, ito yung first na first kong tab.
Tap to rate this tab
 
# A B C D E F G H I J K L M N O P Q R S T U V W X Y Z