Song name
# A B C D E F G H I J K L M N O P Q R S T U V W X Y Z

Daniel Padilla - Ikaw Na Na Na chords

Highlighted       Show chord diagrams
Artist: Daniel Padilla
Song: Ikaw na na na
From the teleserye "Got To Believe"



Capo on the 4th fret


      CM7   -     Am    -    Bm   -     D                     
-------------------------------------2-2-2-2--|
----0-0-0-0----1-1-1-1----3-3-3-3----3-3-3-3--|
----0-0-0-0----2-2-2-2----4-4-4-4-------------|
---------------2---2---2-------------0---0--0-|
----3---3---3-------------2---2---2-----------|
----------------------------------------------|

Intro:
   CM7         Am          Bm           D
-------------------------------------2-2-2-2--|
----0-0-0-0----1-1-1-1----3-3-3-3----3-3-3-3--|
----0-0-0-0----2-2-2-2----4-4-4-4-------------|
---------------2---2---2-------------0---0--0-|
----3---3---3-------------2---2---2-----------|
----------------------------------------------|
   CM7         Am          Bm           D
----------------------------------------2-S---|
----0-0-0-0----1-1-1-1----3-3-3-3------3--T---|
----0-0-0-0----2-2-2-2----4-4-4-4-----2---R---|
---------------2---2---2-------------0----U---|
----3---3---3-------------2---2---2-------M---|
----------------------------------------------|

Verse:

CM7
Teka lang, tek-teka lang 
Am
mayrong akong nakita,
Bm 
pare ko oh, papare ko
D 
oh kay gandang dalaga
CM7
Sandali sa-sa-sandali 
Am
at aking lalapitan
Bm 
kay bilis mo, oh umalis
D
bigla akong naiwanan,

CM7                 Am
Bago pa ko maunahan aking na lalapitan 
Bm                           D (strum once)
Miss Miss ano nga bang pangalan?


Chorus:
CM7
Ikaw na na na na
Am
pwd bang magpakilala
Bm    
larawan mong magara 
 D
hindi na mabura sa isip ko,
CM7             Am        
Na na na Pwede bang magpakilala
Bm
Gandang aking nakita
D
Sadyang nakaka-halina
         CM7     
Na na na na na na na 
Am
na Na na na
         Bm     
Na na na na na na na 
D
na Na na na




Chords by: Bill Kevin S. Patiten ;)
Tap to rate this tab
# A B C D E F G H I J K L M N O P Q R S T U V W X Y Z