Song name
# A B C D E F G H I J K L M N O P Q R S T U V W X Y Z

Daniel Rossen - Saint Nothing chords

Highlighted       Show chord diagrams
-------------------------------------------------------------------------------
                             Saint Nothing - Daniel Rossen
-------------------------------------------------------------------------------
Tabbed by: Miles
E-mail: mjohnson1915@gmail.com

Tuning: Standard

e|-x-x-x-x-1-|-x-|-x-x-|
B|-5-6-6-6-4-|-5-|-x-1-|
G|-5-7-7-7-1-|-3-|-4-2-|
D|-5-6-6-6-1-|-5-|-3-3-|
A|-3-x-8-6-3-|-3-|-3-x-|
E|-x-6-x-x-x-|-x-|-1-x-|

C  A#7  Ddim  ???  G#6/Fmin7  |  C7  |  F
Tap to rate this tab
# A B C D E F G H I J K L M N O P Q R S T U V W X Y Z