Song name
# A B C D E F G H I J K L M N O P Q R S T U V W X Y Z

Daniel Rossen - Up On High tab

-------------------------------------------------------------------------------
                          UP ON HIGH - Daniel Rossen
-------------------------------------------------------------------------------
Tabbed by: Tom Walter
Email: tabs.20.epm [at] spamgourmet.com

Tuning: C# A E C# A E (Open A)

The rhythm may appear odd when tabbed out, but it's basically a straight
strum, you just hit the lower strings on the down stroke and the higher
on the up.

There are a few variations of the stuff below, I haven't bothered to tab
them out exactly because they are pretty easy to get once you have the
basic feel.

      
C#||------------------||----x---------x-------x--|-------------x---------|
A ||------------------||---12--------12------12--|------------12---------|
E ||------------------||*---x---------x-------x--|-------------x---------|
C#||------------------||*--12----12--12--12--12--|--------12--12---------|
A ||------------0--0--||----0-----0-------0------|---0-----0-------0-----|
E ||------------------||-------------------------|-----------------------|


    
---x---------x-------x--|-------------x---------|--3-------3-------|
--10--------10------10--|------------10---------|--0-------0-------|
---x---------x-------x--|-------------x---------|--4-------4-------|
--10----10--10--10--10--|--------10--10---------|--3----3--3-------|
---0-----0-------0------|---0-----0-------0-----|--0----0-----0----|
------------------------|-----------------------|------------------|


  
--0-------0-------|--5---0----5------|--7g5---0------5---|--3-------3-------|
--0-------0-------|--0---0----0------|----0---0------0---|--3-------3-------|
--3-------3-------|--0---0----0------|----0---0------0---|--3-------3-------|
--3----3--3-------|--0---0----0------|----0---0------0---|--3----3--3-------|
--0----0-----0----|--0---0----0------|----0---0------0---|--3----3-----3----|
------------------|------------------|-------------------|------------------|


    
--3g5p--3------3-----||--3-------3-------|--3g5p--3------3----|
----3----------3-----||--3-------3-------|----3----------3----|
--3g5----------3----*||--3-------3-------|--3g5----------3----|
----3----------3----*||--3----3--3-------|----3----------3----|
----3----------3-----||--3----3-----3----|----3----------3----|
---------------------||------------------|--------------------|



-----8-------10--11--|--10---------8-----||
-----8------------8--|---8---------8-----||
-----8------------8--|---8---------8----*||
--8-----8-----8------|---8----8---------*||
--8-----8-----8------|---8----8----------||
---------------------|-------------------||


g = grace note.
p = pull off
Tap to rate this tab
# A B C D E F G H I J K L M N O P Q R S T U V W X Y Z