Song name
# A B C D E F G H I J K L M N O P Q R S T U V W X Y Z

Daniel Thomas - Amazing Grace tab

E|------3-----7---3---|-7-----5----3----|------0----------|------3-----7---3---|-7-----5----10--|
B|-3------------------|-----------------|-----------3-----|-3------------------|----------------|
G|--------------------|-----------------|-----------------|--------------------|----------------|
D|--------------------|-----------------|-----------------|--------------------|----------------|
A|--------------------|-----------------|-----------------|--------------------|----------------|
E|--------------------|-----------------|-----------------|--------------------|----------------|

E|-------7---10----7---|-10--7-----3--------|--0----3---3----0-------|------------3----|
B|---------------------|----------------3---|--------------------3---|------3----------|
G|---------------------|--------------------|------------------------|-----------------|
D|---------------------|--------------------|------------------------|-----------------|
A|---------------------|--------------------|------------------------|-----------------|
E|---------------------|--------------------|------------------------|-----------------|

E|--7--5---7------5---|-3-----3-----|------3------|
B|--------------------|-------------|-------------|
G|--------------------|-------------|-------------|
D|--------------------|-------------|-------------|
A|--------------------|-------------|-------------|
E|--------------------|-------------|-------------|
Tap to rate this tab
# A B C D E F G H I J K L M N O P Q R S T U V W X Y Z