Daniel Tidwell - James Bond Theme tab

            Daniel Tidwells 007 version
_______________
 Legend       |      
 /   slide    |  
 ~   Vibrato  | 
 pm  Palm mute|
 h   Hammer on| 
 _____________|
|---------------------------------------|
|----12~-12~-----12~-12~-----12-12-12-12|
|---------------------------------------|
|------------9-----------9--------------|
|---------------------------------------|
|---------------------------------------|

|----------------------| Play 2 Times
|----------------------|
|----------------------|
|--/9~--/10~--/11~-/10~|
|----------------------|
|----------------------|

 Pm---------------------------------------------------
|-----------------------------------------------------|
|-----------------------------------------------------|
|-----------------------------------------------------| Play 3 Times
|-----------------------------------------------------|
|-----------------------------------------------------|
|--0--2-2-2-2-2-2--0--0--0---0--3-3-3-3-3-3---2--2--2-|

|---------------|
|---------------|
|--/9-7---------|
|-------9--7--9-|
|---------------|
|---------------|

 Pm---------------------------------------------------
|-----------------------------------------------------|
|-----------------------------------------------------|
|-----------------------------------------------------| Play 3 Times
|-----------------------------------------------------|
|-----------------------------------------------------|
|--0--2-2-2-2-2-2--0--0--0---0--3-3-3-3-3-3---2--2--2-|

|---------------|
|---------------|
|--/9-7---------|
|-------9--7--9-|
|---------------|
|---------------|

|----------------------| Play 2 Times
|----------------------|
|----------------------|
|--/9~--/10~--/11~-/10~|
|----------------------|
|----------------------|

|--------11-10-----------------------------|
|--------------8-11-12--8-8h10-------------|
|--9--12----------------------11--8-8------|
|--------------------------------------11~-|
|------------------------------------------|
|------------------------------------------|

|--------11-10-----------------------------|
|--------------8-11-12--8-8h10-------------|
|--9--12----------------------11--8-8-9~---|
|------------------------------------------|
|------------------------------------------|
|------------------------------------------|

|--------11-10-----------------------------|
|--------------8-11-12--8-8h10-------------|
|--9--12----------------------11--8-8------|
|--------------------------------------11~-|
|------------------------------------------|
|------------------------------------------|

|--------11-10-----------------------------|
|--------------8-11-12--8-8h10-------------|
|--9--12----------------------11--8-8-9~---|
|------------------------------------------|
|------------------------------------------|
|------------------------------------------|

|---------------| |----------------|
|---------------| |----------------|
|---------------| |----------------|
|---------------| |----------------|
|--7-7--7-9-7-9-| |--10-10-9-9-7-9-|
|---------------| |----------------|

|---------------------------|
|---------------------------|
|---------------------------|
|--9~-9~---9~-9~----9-9-9-9-|
|---------------------------|
|-------7~-------7~---------|


Last Chord

|-----|
|--7--|
|--8--|
|--9--|
|--10-|
|--0--|

There you Go Enjoy!!! :D

http://danieltidwell.com/
Tap to rate this tab
 
# A B C D E F G H I J K L M N O P Q R S T U V W X Y Z