Song name
# A B C D E F G H I J K L M N O P Q R S T U V W X Y Z

Daniel Wesley - Ooo Oh tab

intro
----------------------------------------------|
--------8----------4----------3---------------|       X4
--------10---------6----------5---------------|
--------10---------6----------5---------------|    Play notes
--------10---------6----------5---------------|    slowly as
----------------------------------------------|      chords


---X--X--------X--X--------X--X-------X--X-----|
---X--X---8----X--X---8----X--X---8---X--X---8-|   play notes as a reggae
---X--X--10----X--X--10----X--X--10---X--X--10-|   beat.
---X--X--10----X--X--10----X--X--10---X--X--10-|
---X--X--------X--X--------X--X-------X--X-----|
   |  |   |    |  |   |    |  |   |   |  |   |
  Up Down Up  Up Down Up  Up Down Up  Up Down Up


http://www.danielwesley.com/
Tap to rate this tab
 
# A B C D E F G H I J K L M N O P Q R S T U V W X Y Z