Guitaretab - guitar tabs
Song name
# A B C D E F G H I J K L M N O P Q R S T U V W X Y Z

Daniel Wesley - Layde Maybe tab

-------------------------------------------------------------------------------
			     Layde Maybe - Daniel Wesley
-------------------------------------------------------------------------------
Tabbed by: Kyle

Tuning: (standard) EADGBe



| /  slide up
| \  slide down
| h  hammer-on
| p  pull-off
| ~  vibrato
| +  harmonic
| x  Mute note
| D  Strum Down
| U  Strum Up
| !  Hard stroke


         
e|-------------4---------3-x-2----1-1-1-1--x---4-4-4-4-----------------------|
B|-------------4---------4-x-3----2-2-2-2--x---5-5-5-5-----------------------|
G|-x-x--5-5-5--5---3h5~~~5-x-4----3-3-3-3--x---6-6-6-6----5------------------|
D|-x-x--6-6-6------------5-x-4----3-3-3--------6-6-6-------------------------|
A|-x-x--6-6-6---------------------1-1-1--------4-4-4-------------------------|
E|-x-x--4-4-4----------------------------------------------------------------|
```D`U``D`D`U``D`````````D`U`D````D`D`U`D``````D`D`U`D      

 
[ Tab from: http://www.guitaretab.com/d/daniel-wesley/107348.html ]
                         
e|------------4----------3-x-2----1-1---1-1-1-1---------------------------4--|
B|------------4----------4-x-3----2-2---2-2-2-2---------------------------4--|
G|----5-5-5---5----3h5~~~5-x-4----3-3---3-3-3-3--------8-----------5-5-5--5--|
D|----6-6-6--------------5-x-4----3-3---3-3-3-3---3/10---10-8--6~~~6-6-6-----|
A|----6-6-6-----------------------1-1---1-1-1-1--------------------6-6-6-----|
E|----4-4-4--------------------------------------------------------4-4-4-----|
``````D`D`U```D``````````D`U`D````D`D```U`D`U`D````````````````````D`D`U``D Woke up


        
e|------3-x-2----1-1-1-1-----4-4-4-4-----------------------------------------|
B|------4-x-3----2-2-2-2-----5-5-5-5-----------------------------------------|
G|3h5~~~5-x-4----3-3-3-3-----6-6-6-6----5------------------------------------|
D|------5-x-4----3-3-3-------6-6-6-------------------------------------------|
A|---------------------------4-4-4-------------------------------------------|
E|---------------------------------------------------------------------------|
````````D`U`D````D`D`U`D`````D`D`U`D    
  This Morning....        It was cold until now...



After he starts singing, the guitar repeats until he goes "And I'll be on my
 way just to see your face.." At this part you just play the same chords from
 the intro in full.

once you know the basic chords for it its a really easy song and fun to play!
Enjoy.



===============================================================================
Related for Layde Maybe tab
Advertisement will be closed in 10 seconds