Song name
# A B C D E F G H I J K L M N O P Q R S T U V W X Y Z

Daniel Wesley - You Aint Shit tab

-------------------------------------------------------------------------------
			     You Ain't Shit - Daniel Wesley
-------------------------------------------------------------------------------
Tabbed by: Frazer Constable
Email: boardin_on_powder@hotmail.com

Tuning: Standard

A true BC song!* Wanted to throw out a thanks to Devan Mclaren for his help. I'm still 
away on the rest, but here's the basics to it. Enjoi. :)

Intro/Verse/Chorus/Outro:
   B            F# Maj       C# Maj       E Maj
e|----(2)-x--x-----(2)-x--x-----(4)-x--x-----(0)-|
B|-----4--x--x-(2~)-2--x--x------6--x--x-(0~)-0--|
G|-----4--x--x--3~--3--x--x------6--x--x--1~--1--|
D|---4~---x--x--4~--4--x--x----6~---x--x--2~--2--|
A|-2~-----x--x----4~---x--x--4~-----x--x----2~---|
E|--------x--x----2~---x--x---------x--x----0~---|
  "Come up Sunday mornin',
                where's the weed at?"

*Solo coming soon!*

- Thanks, Frazer.

| /  slide up
| \  slide down
| h  hammer-on
| p  pull-off
| ~  vibrato
| +  harmonic
| x  Mute note
===============================================================================
Tap to rate this tab
# A B C D E F G H I J K L M N O P Q R S T U V W X Y Z