Daniel Wesley - Ooo Ohh tab

-------------------------------------------------------------------------------
			     OOO OHH - DANIEL WESLEY
-------------------------------------------------------------------------------
Tabbed by:calvin
Email:globe18_1@hotmail.com


the way he plays it is with a capo on the second fret. this is the acoustic
version which if you haven't heard    listen to it. 

im not going to put the strumming pattern down you should be able to pick that up
with a quick listen


Tuning: standard capo 2nd fret
   
      Ooo ohh you can't look back girl,    Gonna catch a wave and smoke a little ganja.
e|----x--------0------------------0---------------------------------------------|
B|----x--------1------------------0---------------------------------------------|
G|----5--------2------------------0---------------------------------------------|
D|----5--------2------------------2---------------------------------------------|
A|----3--------0------------------2---------------------------------------------|
E|----x--------0------------------0---------------------------------------------|
 
    Ooo ohh you can't look back girl.  Ooo ohh ohh ohh Ooo ohh ohh ohh.
e|--x----------0-----------------0--------------0--------------------------------|
B|--x----------1-----------------0--------------1--------------------------------|
G|--5----------2-----------------0--------------0--------------------------------|
D|--5----------2-----------------2--------------2--------------------------------|
A|--3----------0-----------------2--------------3--------------------------------|
E|--x----------0-----------------0--------------0--------------------------------|
 

     Daddy's little secret,           don't you know what you came for? 
e|----0----------0----0---------------------------------------------------------|
B|----1----------1----0---------------------------------------------------------|
G|----0----------0----0---------------------------------------------------------|
D|----2----------2----2---------------------------------------------------------|
A|----3----------0----2---------------------------------------------------------|
E|----0----------0----0---------------------------------------------------------|
                                                                                      
    And you notice where you are 
e|--0-------0--------------0----------------------------------------------------|
B|--1-------1--------------0----------------------------------------------------|
G|--0-------0--------------0----------------------------------------------------|
D|--2-------2--------------2----------------------------------------------------|
A|--3-------0--------------2----------------------------------------------------|
E|--0-------0--------------0----------------------------------------------------|
        
     

     You wont be coming back there     Before you go, before you run away
e|----x----------0-----------------0--------------------------------------------|
B|----x----------1-----------------0--------------------------------------------|
G|----5----------2-----------------0--------------------------------------------|
D|----5----------2-----------------2--------------------------------------------|
A|----3----------0-----------------2--------------------------------------------|
E|----x----------0-----------------0--------------------------------------------|

  This is pretty much the whole song its just repeated alot

************************************

| /   slide up
| \   slide down
| h   hammer-on
| p   pull-off
| ~   vibrato
| +   harmonic
| x   Mute note
| b   Bend
| pb  Pre-bend
| br  Bend release
| pbr Pre-bend release
| brb Bend release bend

************************************
Tap to rate this tab
 
# A B C D E F G H I J K L M N O P Q R S T U V W X Y Z