Song name
# A B C D E F G H I J K L M N O P Q R S T U V W X Y Z

Danilo Montero - Eres Todopoderoso tab

Here its how it sounds
http://www.youtube.com/watch?v=zeASw8XTbEA 

These are the chords leading up to the solo

A5 F5 C5 G5
A5 F5 C5
E-----------------------------------------------------------------------------|
B--------------------------------------9b-------------------------------------|
G------------5-7-7b-5---5-7-7b-------5----------------------------12-13-15----|
D---------------------7----------5-7------------------11-12-13-15-------------|
A------2-2/5-------------------8----------------10-11-------------------------|
E--2-3------------------------------------10-12-------------------------------|
                      (turn wha pedal on((HERE))
E------------------------15-15-15---------------------------------------------|
B--12-13-15-12----12-15b----------15r-12-12b----------------------------------|
G--------------14----------------------------12-------------------------------|
D-----------------------------------------------------------------------------|
A-----------------------------------------------------------------------------|
E-----------------------------------------------------------------------------|

God Bless
Tap to rate this tab
 
# A B C D E F G H I J K L M N O P Q R S T U V W X Y Z