Guitaretab - guitar tabs
Song name
# A B C D E F G H I J K L M N O P Q R S T U V W X Y Z

Danilo Montero - Eres Todopoderoso tab

Aki les va el intro:

e------------2-----------------------|
B------3---3---3---3-----------------|
G--2h4---4-------4---4-4-4-4---------|
D------------------------------------|
A------------------------------------|
E------------------------------------|

Toda la canción está en los mismos acordes: Bm G D A
mientras la 1º guitarra hace esto:
[ Tab from: http://www.guitaretab.com/d/danilo-montero/68829.html ]
e-----2----------3----------2----------0-------|
B-------3----------3----------3----------2-----|
G---------4----------4----------2----------2---|
D---4----------5----------0----------2---------|
A-2----------5----------0----------0-----------|
E----------------------------------------------|

Luego, viene el solo:

e------------------------10-12-14-10-----------|
B-3-5-7-10-8-7-10--3-5-7-----------------------|
G----------------------------------------------|
D----------------------------------------------|
A----------------------------------------------|
E----------------------------------------------|
Related for Eres Todopoderoso tab
Advertisement will be closed in 10 seconds