Guitaretab - guitar tabs
Song name
# A B C D E F G H I J K L M N O P Q R S T U V W X Y Z

Danko Jones - Suicide Woman tab

Danko Jones - Suicide Woman

tabbed by habyridhelix88

Standart Tuning


E|----------------------------|
H|----------------------------|
G|----------------------------|
D|----6------9-11-9-0-9-6----|
A|----4------79-7-27-4----|
E|----------------------------|

E|--------------------------|
H|--------------------------|
G|--------------------------|
D|-------------------4----6-|
A|----4----2---------2----4-|
E|----2----0----------------|

E|-------------------|
H|-------------------|
G|-------------------|
D|----4-4-4-4-4-4----|
A|----2-2-2-2-2-2----|
E|-------------------|


E|--------------------------------------------------------------------|
H|-----------------------------------------------------------------5--|
G|------------------------------------------------------------46-----|
D|----6-6-6-6-6-6-6-6-6-6-6-6-6-6-6-6-6-6-6-6-6-6-6-6----4--6---------|
A|----4.4.4.4.4.4.4.4.4.4.4.4.4.4.4.4.4.4.4.4.4.4.4.4-----------------|
E|--------------------------------------------------------------------|

[ Tab from: http://www.guitaretab.com/d/danko-jones/101710.html ]
E|---------------------------------------------------------|
H|-------------5----------5-----------5/7-7p-7p-7p-7p------|
G|---------46--------4-6---------4-6----------------------|
D|----6-6--------6-6---------6-6---------------------------|
A|----4-4--------4-4---------4-4---------------------------|
E|---------------------------------------------------------|


Solo :

E|------------------------------------------------------|
H|12p----12p12----------------------11-11-11-9---------|
G|----------------11p11---9---------11-11-11-9---------|
D|------------------------------------------------11--9-|
A|------------------------------------------------------|
E|------------------------------------------------------|

E|--------------------|
H|--------------------|
G|--------------------|
D|--------------------|
A|----797274~~~~-|
E|--------------------|

E|----------------------------------14p1412---------|
H|----------------------------1214-----------14--14--|
G|----------9-9-9----9---11---------------------------|
D|----911--------11----------------------------------|
A|----------------------------------------------------|
E|----------------------------------------------------|

you have to find out by yourself how long you have to hold the notes
Related for Suicide Woman tab