Song name
# A B C D E F G H I J K L M N O P Q R S T U V W X Y Z

Danko Jones - King Of Magazines tab

INTRO & VERSE

e|-------------------------------------------------------|
B|-------------------------------------------------------|
G|-------------------------------------------------------|
D|-------------------------------------------------------|
A|----9-12-12-12-----------------------------------------| 
E|-12------------12-12-12-12-9-9-9--4-5-9-9-9-0-0-0-2-2--|


PRE-CHORUS:
    
e |-----------------------------------------------------------------| x2
B |-----------------------------------------------------------------|
G |-----------------------------------------------------------------|
D |-----------------------------------------------------------------|
A |-----------------------------------------------------------------|
E |-0-0-12-12-0-0-12-12-0-0-12-12-0-0-12----------------------|

CHORUS
    
SLIGHT VARIATION ON VERSE RIFF...

'makes me buurrn...

e |----------------------------------------------------------------------| 
B |----------------------------------------------------------------------|
G |----------------------------------------------------------------------|
D |----------------------------------------------------------------------|
A |----9-12-12-12--------------------------------------------------------|
E |-12------------12-12-12-12-9-9-9h12-9(x2)-4-5-9-9-9-0-0-0-2-2h5-2-(x2)|

BRIDGE

e |-------------------------------------------|
B |-------------------------------------------|
G |-------------------------------------------|
D |-------------------------------------------|
A |-------------------------------------------|
E |-12-12-12-14-7-7-7-9-5-7-9-7-5-0-0-0-5-0-2-|


Good luck, great song 
Tap to rate this tab
# A B C D E F G H I J K L M N O P Q R S T U V W X Y Z