Song name
# A B C D E F G H I J K L M N O P Q R S T U V W X Y Z

Danko Jones - First Date tab

Help us improve GuitareTab! Take a short survey!
  Band:   Danko Jones
  Song:   First Date
 Album:   Sleep is the Enemy
Tabber:   Smile4me88

Tuning: E A D G B E

Intro/Verse
e--------------------------| 1 time
a--------------------------|
d--------------------------|
g--------------------------|
b-2--2-5-2--2-5-7--7-5-2---|
e-0--0-3-0--0-3-5--5-3-0---|


e-----------------------------| 5 times
a-----------------------------|
d-----------------------------|
g-----------------------------|
b-2--22-5-2--22-5-7--77-5-2---|
e-0--00-3-0--00-3-5--55-3-0---|

Pre Chorus
e--------------------------------------|
a--------------------------------------|
d--------------------------------------|
g--------------------------------------|
b-9999999999999---222--9999999999------|
e-7777777777777---000--7777777777------|

Chorus
e------------------------------------------| 2 times
a------------------------------------------| 
d------------------------------------------| 
g-9999999999999999-7777-12121212-99999999--| 
b-7777777777777777-5555-10101010-77777777--|
e------------------------------------------| 

..................pm. last one without
e---------------------|
a---------------------|
d---------------------|
g---------------------|
b--99999999999999999--|
e--77777777777777777--|


Intro/Verse
e-----------------------------| 4 times
a-----------------------------|
d-----------------------------|
g-----------------------------|
b-2--22-5-2--22-5-7--77-5-2---|
e-0--00-3-0--00-3-5--55-3-0---|

Pre Chorus
e--------------------------------------|
a--------------------------------------|
d--------------------------------------|
g--------------------------------------|
b-9999999999999---222--9999999999------|
e-7777777777777---000--7777777777------|

Chorus                                                
e------------------------------------------| 4 times      
a------------------------------------------|             
d------------------------------------------|
g-9999999999999999-7777-12121212-99999999--| 
b-7777777777777777-5555-10101010-77777777--| 
e------------------------------------------|              

..................................pm. last one with vibrato
e---------------------------------------|
a---------------------------------------|
d---------------------------------------|
g---------------------------------------|
b-9999999999999999---77777777777777777~-|
e-7777777777777777---55555555555555555~-|

Bridge
e--------------|
a--------------|
d--------------|
g--------------|
b--7--7--7--7--|
e--5--5--5--5--|

Chorus
e------------------------------------------| 3 times then
a------------------------------------------|
d------------------------------------------|
g-7777-12121212-999999999999999999999999---|
b-5555-10101010-777777777777777777777777---|
e------------------------------------------|

Ending Chorus                                last one slide down
                            ..............................pm. 
e---------------------------------------------------------------|
a---------------------------------------------------------------|
d---------------------------------------------------------------|
g-7777-12121212-99999999----------------------------------------|
b-5555-10101010-77777777-----99999999999999999999999999999999\0-|
e----------------------------77777777777777777777777777777777\0-|

Thanks I Hope this Version of the Song is Correct ;-) It is my first tab.
When it includes errors please write me! 

Smile4me88@web.de

Have Fun! ;-) Greetings from Germany
Related for First Date tab