Song name
# A B C D E F G H I J K L M N O P Q R S T U V W X Y Z

Danko Jones - Sugar High tab

|-------------|  
|-------------|  
|-------------|
|--9-9---7-7--|  
|--9-9---7-7--|  
|--7-7---5-5--|


|-----------------------|
|-----------------------|
|----------9------------|
|--9/11/9--9--9-9/11-11-| x 8
|--9/11/9--7--9-9/11-11-|
|--7/ 9/7-----7-7/ 9- 9-|

then
|----------|     |-----------------------|
|----------|     |-----------------------|
|----------|     |----------9------------|   
|--9~--7~--|     |--9/11/9--9--9-9/11-11-| x  2       
|--9~--7~--|     |--9/11/9--7--9-9/11-11-| 
|--7~--5~--|     |--7/ 9/7-----7-7/ 9- 9-|
    

And lastly
|-----------------------|
|-----------------------|
|-----------------------|
|--9~-9~-9~-/-7~-7~-7~--|
|--9~-9~-9~-/-7~-7~-7~--|
|--7~-7~-7~-/-5~-5~-5~--|

Simple
Tap to rate this tab
# A B C D E F G H I J K L M N O P Q R S T U V W X Y Z