Song name
# A B C D E F G H I J K L M N O P Q R S T U V W X Y Z

Danko Jones - Sticky Situation tab

Artist: Danko Jones
Title: Sticky Situation
Album: Sleep Is The Enemy

tabbed by: Eric Lambrecht
~~~~~~~~~~~~~~~~~~

Enjoy it! 
...probably harder to sing, than to play on the guitar!

Notes:	/  slide up
	\  slide down
	()  ghost note
	^  bend

VERSE:
e:-------------------------------|------------------------------|
b:-------------------------------|------------------------------|
G:--------      __      ---------|--------      __      --------|   2x
D:--------              ---------|--------              --------|
A:-7-9---------------------------|-7-9--------------------------|
E:-5-7---------------------------|-5-7--------------------------|

e:-------------------------------|------------------------------|
b:-------------------------------|------------------------------|
G:-------------------------------|------------------------------|  
D:-------------------------------|------------------------------|
A:-2-4-----------2-4-------------|-2-4-----------2-4-----2-4----|
E:-0-2-----------0-2-------------|-0-2-----------0-2-----0-2----|

e:-------------------------------|------------------------------|
b:-------------------------------|------------------------------|
G:-------------------------------|------------------------------|  
D:-------------------------------|------------------------------|
A:-7-9-----------7-9-------------|-7-9-----------7-9-----7-9----|
E:-5-7-----------5-7-------------|-5-7-----------5-7-----5-7----|

PRE-CHORUS:
e:--------------------------------|
b:-9-9-9-9-10--9---7-7-7-7-7---7--|
G:-9-9-9-9-9---9---7-7-7-7-7---7--|  
D:--------------------------------|
A:--------------------------------|
E:--------------------------------|

CHORUS:
e:---------------------------------|---------------------------------|
b:---------------------------------|---------------------------------|
G:---------------------------------|---------------------------------|  2x
D:-----------------------7---------|-----------------------7---------|
A:-7/9-----7/9-----7/9---5---9-----|-7/9-----7/9-----7/9---5---9-----|
E:-5/7--(0)5/7---0-5/7-------7---0-|-5/7--(0)5/7---0-5/7-------7--(0)|

[Actually it's up to you whether you play the E (-0-) or not.]

VERSE 2
PRE-CHORUS
CHORUS

e:-------------------------------|------------------------------|
b:-------------------------------|------------------------------|
G:--------   let ring..    ------|--------      ~~~     --------|   
D:--------                 ------|--------      ~~~     --------|
A:-4-----------------------------|-4----------------------------|
E:-2-----------------------------|-2----------------------------|

SOLO:
e:---------------------------------|---------------------------------|
b:---------------------5-3-5-3-5-3-|-----3---------------5-3-5-3-5-3-|
G:-44444444444444444444------------|-4444-444444444444444------------|  
D:---------------------------------|---------------------------------|
A:---------------------------------|---------------------------------|
E:---------------------------------|---------------------------------|

e:-55552222--------55552222---------|---------------------------------|
b:---------55553333--------55553333-|-5^-----5^-----5---3-------------|
G:----------------------------------|---------------------4-2-4\------|  
D:----------------------------------|---------------------------------|
A:----------------------------------|---------------------------------|
E:----------------------------------|---------------------------------|

e:----------------------------------|------------------------------------------------------|
b:----------------(9)~ ----14^15~ --|-14-14-14-14-14-14-14-14-16-16-16-16-16-16-16-16-[2x]-|
G:-----------------9^~ ----14^15~ --|-14-14-14-14-14-14-14-14-16-16-16-16-16-16-16-16------|  
D:-4~~ ----7~~ ---------------------|------------------------------------------------------|
A:----------------------------------|------------------------------------------------------|
E:----------------------------------|------------------------------------------------------|
                                       -> played with some vibrato...

VERSE 3 (extended)
CHORUS
PRE-CHORUS
CHORUS ...
Tap to rate this tab
# A B C D E F G H I J K L M N O P Q R S T U V W X Y Z