Danko Jones - Had Enough tab

"Danko Jones" - "Had Enough" from the "Below the Belt" record

Tabbed by Tilt_Mode
enjoy   

INTRO:
E|----------------------------------|
B|----------------------------------|
G|----------------------------------|
D|-------------------------------9--|
A|-----9-----10----9-----10------9--|
E|-7-7---7-7---77----7-7----7-7--7--|
PM . .   . .   . .   . .    . .

E|----------------------------------|
B|----------------------------------|
G|----------------------------------|
D|--------------------------11--6---|
A|-----9-----10----9--------12--7---|
E|-7-7---7-7---7-7---7-7-7--10--5---|
PM . .   . .   . .   . . .   
Verse:

E|------------------|
B|------------------|
G|------------------|
D|-9------5---------|
A|-9(32x)-5(32x)----|
E|-7------3---------|

   last time
E|------------------|
B|------------------|
G|------------------|
D|-9------5------7--|
A|-9(32x)-5(24x)-7--|
E|-7------3------5--|

Chorus:
E|-----------------------------|
B|-----------------------------|
G|---------------7-------------|
D|-9------5------7(16x)-7------|
A|-9(16x)-5(16x)-5------7(16x)-|
E|-7------3-------------5------|

Bridge:
E|---------------------------------------------------|
B|---------------------------------------------------|
G|//11(16x)--7--12-12-12-12-11-11-11-11-9-9-9-9-7-7-7| 
D|---------------------------------------------------|  
A|---------------------------------------------------|\
E|---------------------------------------------------| \
                                                        \ Played
E|---------------------------------------------------|  /  twice
B|---7-----------------------------------------------| /
G|-9---9-7-7-7-7-7-7-7-7-----------------9-9-9-9-6-6~|/
D|-----------------------7-7-7-7-9-9-9-9-------------|
A|---------------------------------------------------|
E|---------------------------------------------------|

sort of prechorus
E|---------------------------------------------------|
B|---------------------------------------------------|
G|-7------------7------------7-----------------------|
D|-7--9--7--9---7--9--7--9---7--9--7--9----5--2------|
A|-5--9--7--9---5--9--7--9---5--9--7--9----5--2------|
E|----7--5--7------7--5--7------7--5--7----3--0------|

rate the shit out of this one
Tap to rate this tab
 
# A B C D E F G H I J K L M N O P Q R S T U V W X Y Z