Danko Jones - Home To Hell tab

Danko Jones - Home To Hell

Album: We Sweat Blood
Instrument: Guitar
Tuning: eBGDAE

Tabbed By: Rolf Oslo


Intro

e||----------|
B||----------|
G||-4-5-4----|
D||-4-5-4-6--|
A||-2-3-2-6--|
E||-------4--| x2

e||---------------------------|
B||---------------------------|
G||-4-5-4---------------------|
D||-4-5-4-6--6-6--6--6--6--6--|
A||-2-3-2-6--6-6--6--6--6--6--|
E||-------4--4-4--4--4--4--4--| x4


Verse

e||---------------------------|
B||---------------------------|
G||-4-5-4---------------------|
D||-4-5-4-6--6-6--6--6--6--6--|
A||-2-3-2-6--6-6--6--6--6--6--|
E||-------4--4-4--4--4--4--4--|
pm  * * * *  * *  *  *  *  *


Chorus

e||-------------------------|
B||-------------------------|
G||-7--5--4-----4--2--------|
D||-7--5--4-----4--2--6-----|
A||-5--3--2-----2--0--6-----|
E||-------------------4-----| x4


Verse

e||---------------------------|
B||---------------------------|
G||-4-5-4---------------------|
D||-4-5-4-6--6-6--6--6--6--6--|
A||-2-3-2-6--6-6--6--6--6--6--|
E||-------4--4-4--4--4--4--4--| x8


Chorus

e||-------------------------|
B||-------------------------|
G||-7--5--4-----4--2--------|
D||-7--5--4-----4--2--6-----|
A||-5--3--2-----2--0--6-----|
E||-------------------4-----| x4


Post-Chorus
e||---------------------------|
B||---------------------------|
G||-4-5-4---------------------|
D||-4-5-4-6--6-6--6--6--6--6--|
A||-2-3-2-6--6-6--6--6--6--6--|
E||-------4--4-4--4--4--4--4--| x8

e||----------|
B||----------|
G||-4-5-4----|
D||-4-5-4-6--|
A||-2-3-2-6--|
E||-------4--| x4


Chorus

e||-------------------------|
B||-------------------------|
G||-7--5--4-----4--2--------|
D||-7--5--4-----4--2--6-----|
A||-5--3--2-----2--0--6-----|
E||-------------------4-----| x4
Tap to rate this tab
 
# A B C D E F G H I J K L M N O P Q R S T U V W X Y Z