Song name
# A B C D E F G H I J K L M N O P Q R S T U V W X Y Z

Danko Jones - Tonight Is Fine tab

Tonight Is Fine by Danko Jones
from Below The Belt

INTRO                                              x4
e---------------------------------------------------|
B---------------------------------------------------|
G--11-11-11--9--9--9--9--14-14-14-14--11-11-11-11---|
D--9--9--9---7--7--7--7--12-12-12-12--9--9--9--9----|
A---------------------------------------------------|
E---------------------------------------------------|


0:16             x3
e-----------------|-----------------------|
B-----------------|-----------------------|
G--------9--9-11--|--------9--9-11-14-11--|
D----9------9-11--|----9------9-11-14-11--|
A--7---7----7-9---|--7---7----7-9--12-9---|
E-----------------|-----------------------|

VERSE                        x2
e-----------------------------|
B-----------------------------|
G-----------------------------|
D--4~--2-4-7--2-4-7--2-4-7-4--|
A--4~--2-4-7--2-4-7--2-4-7-4--|
E--2~--0-2-5--0-2-5--0-2-5-2--|

0:49                                                             x2
e-----------------------------------------------------------------|
B-----------------------------------------------------------------|
G--11-11-11-11-11-11-11-11-11-11-11-11-11-------------------------|
D--9--9--9--9--9--9--9--9--9--9--9--9--9---2-4-7--2-4-7--2-4-7-4--|
A------------------------------------------2-4-7--2-4-7--2-4-7-4--|
E------------------------------------------0-2-5--0-2-5--0-2-5-2--|

1:06                                    x2
e----------------------------------------|--------------------------------------|
B----------------------------------------|--------------------------------------|
G----------------------------------------|--------------------------------------|
D--9--7--2-4-4-2-2-4--9--7--2-4-4-2-2-4--|--7--9--2-2-4-4--7-7-7-7-7-7-7-7-7-7--|
A--9--7--2-4-4-2-2-4--9--7--2-4-4-2-2-4--|--7--9--2-2-4-4--7-7-7-7-7-7-7-7-7-7--|
E--7--5--0-2-2-0-0-2--7--5--0-2-2-0-0-2--|--5--7--0-0-2-2--5-5-5-5-5-5-5-5-5-5--|

1:46
SAME AS ABOVE BUT THEN PLAY
e-----------------------|
B-----------------------|
G-----------------------|
D--9-9-9-9-9-9-9-9-9-9--|
A--9-9-9-9-9-9-9-9-9-9--|
E--7-7-7-7-7-7-7-7-7-7--|

2:36
e--------------------------------------------------------------------------------------------|
B--------------------------------------------------------------------------------------------|
G--9---------------------------------16-16-14------14-14-16-14------16-16-14-----------------|
D--9-9-7-4-2~----4~--2~--4~--2~--4~--16-16-14--2~--14-14-16-14--4~--16-16-14--2-2-2-2-2-2-2--|
A--7-9-7-4-2~----4~--2~--4~--2~--4~--14-14-12--2~--12-12-14-12--4~--14-14-12--2-2-2-2-2-2-2--|
E----7-5-2-0~--0-2~--0~--2~--0~--2~------------0~---------------2~------------0-0-0-0-0-0-0--|

OUTRO            x7
e-----------------|--------------------|
B-----------------|--------------------|
G--------9--9-11--|--------9-----------|
D----9------9-11--|----9------2-2-2-4--|
A--7---7----7-9---|--7---7----2-2-2-4--|
E-----------------|-----------0-0-0-2--|

Any corrections please comment
Thanks
Tap to rate this tab
 
# A B C D E F G H I J K L M N O P Q R S T U V W X Y Z