Song name
# A B C D E F G H I J K L M N O P Q R S T U V W X Y Z

Danko Jones - Your Tears My Smile tab

intro:
e------------------------    -------------------------|
b------------------------    ---------------10--------|
g-----11-9---11-9---11-9-    -----11-9---11------11-9-|
d-9-9------9------9------ x3 -9-9------9-------9------|
a------------------------    -------------------------|
e------------------------    -------------------------|

e-------------------------    -----------|
b-------------------------    -----------|
g------------------------- x3 -----------|
d-------------7-7-7-7-7---    -----------|
a-9-9-9-9-9-7-5-5-5-5-5-7-    -5-5-5-5-4-|
e-7-7-7-7-7-5-----------5-    -3-3-3-3-2-|

verse:
e-------------------------|
b-------------------------|
g-------------------------| repeat throughout verse
d-------------7-7-7-7-7---|
a-9-9-9-9-9-7-5-5-5-5-5-7-|
e-7-7-7-7-7-5-----------5-|

You lie, The truth always alludes you, No one does it better, you'll say anything you need to
You know, You know exactly what you're doing, more than anyone else, you hate yourself 
and sit there brooding

chorus:
e-------------|
b-------------|
g-------------|
d-------------|
a-5-4-7-9-5-4-|
e-3-2-5-7-3-2-|

Been pampered all your life but words can't cut like a knife and when they do
your tears my smile

verse:
You cry! Like a five-year-old child/at the drop of a dime
I see the welling in your eyes
You cheat! You're cheating on repeat you're hollow on the inside but you think you've got it beat

chorus:
I've never met somebody with so much hate I'm sorry but you're just spoiled and rotten 
and will be soon forgotten until that day
your tears my smile    your tears my smile

back to intro and repeat it several times

bridge:
e---------------|
b---------------|
g---------------|
d-------------7-|
a-9-9-9-9-9-7-5-|
e-7-7-7-7-7-5---|

verse (same lyrics as the first)
chorus:
i found you to be vacant, your tantrums escalated, your sulking and self-loathing 
got tired and anoying
 chorus(palm-mute this bit):
Been pampered all your life but words can't cut like a knife and when they do
(not palm-muted and also guitar from intro plays as well as normal chorus guitar)
your tears my smile
your tears my smile
your tears my smile
your tears my smile

:)
Tap to rate this tab
# A B C D E F G H I J K L M N O P Q R S T U V W X Y Z