Song name
# A B C D E F G H I J K L M N O P Q R S T U V W X Y Z

Danko Jones - Tonight Is Fine tab

------------------------------------------------------------------------------------------------
	             		                   Tonight Is Fine - Danko Jones
------------------------------------------------------------------------------------------------
Tabbed by: Emiel Brommer
Email: emiel_1993_@live.nl

Tunig: Standard

Intro                                                        
e---------------------------------------------------|
B---------------------------------------------------|
G-----11-11-11--9--9--9--9--------------------------|
D-----9--9--9---7--7--7--7--7--7--7--7--4--4--4--4--|
A---------------------------5--5--5--5--2--2--2--2--|
E---------------------------------------------------|

                                                   x3
e---------------------------------------------------|
B---------------------------------------------------|
G--11-11-11-11--9--9--9--9--------------------------|
D--9--9--9--9---7--7--7--7--7--7--7--7--4--4--4--4--|
A---------------------------5--5--5--5--2--2--2--2--|
E---------------------------------------------------|

Riff                           x3                                
e-------------------------------|---------------------------------|
B-------------------------------|---------------------------------|
G---------------9-----9--11-11--|---------------9-----9-11-14-11--|
D-----11-----7--------9--11-11--|-----11-----7--------9-11-14-11--|
A--9------9--------7--7--9--9---|--9------9--------7--7-9--12-9---|
E-------------------------------|---------------------------------|

Verse                        x2
e-----------------------------|
B-----------------------------|
G-----------------------------|
D--4~--2-4-7--2-4-7--2-4-7-4--|
A--4~--2-4-7--2-4-7--2-4-7-4--|
E--2~--0-2-5--0-2-5--0-2-5-2--|

                                                                         x2
e-------------------------------------------------------------------------|
B-------------------------------------------------------------------------|
G--11-11-11-11-11-11-11-11-11-11-11-11-11-11-11-11------------------------|
D--11-11-11-11-11-11-11-11-11-11-11-11-11-11-11-11-2-4-7--2-4-7--2-4-7-4--|
A--9--9--9--9--9--9--9--9--9--9--9--9--9--9--9--9--2-4-7--2-4-7--2-4-7-4--|
E--------------------------------------------------0-2-5--0-2-5--0-2-5-2--|


                                                                       x8
e-------------------------------------------------------------------|---|
B-------------------------------------------------------------------|---|
G-------------------------------------------------------------------|---|
D-9-9--7-7--2-4-4-2-4--4-4-9--7-7--2-4-4-2-4--4-4-7--9-9--2-2--4-4--|-7-|
A-9-9--7-7--2-4-4-2-4--4-4-9--7-7--2-4-4-2-4--4-4-7--9-9--2-2--4-4--|-7-|
E-7-7--5-5--0-2-2-0-2--2-2-7--5-5--0-2-2-0-2--2-2-5--7-7--0-0--2-2--|-5-|

                               x2
e-------------------------------|
B-------------------------------|
G---------------9-----9--11-11--|
D-----11-----7--------9--11-11--|
A--9------9--------7--7--9--9---|
E-------------------------------|

                                                                         x2
e-------------------------------------------------------------------------|
B-------------------------------------------------------------------------|
G--11-11-11-11-11-11-11-11-11-11-11-11-11-11-11-11------------------------|
D--11-11-11-11-11-11-11-11-11-11-11-11-11-11-11-11-2-4-7--2-4-7--2-4-7-4--|
A--9--9--9--9--9--9--9--9--9--9--9--9--9--9--9--9--2-4-7--2-4-7--2-4-7-4--|
E--------------------------------------------------0-2-5--0-2-5--0-2-5-2--|


                                                                      x16  x8
e-------------------------------------------------------------------|---|---|
B-------------------------------------------------------------------|---|---|
G-------------------------------------------------------------------|---|---|
D-9-9--7-7--2-4-4-2-4--4-4-9--7-7--2-4-4-2-4--4-4-7--9-9--2-2--4-4--|-7-|-9-|
A-9-9--7-7--2-4-4-2-4--4-4-9--7-7--2-4-4-2-4--4-4-7--9-9--2-2--4-4--|-7-|-9-|
E-7-7--5-5--0-2-2-0-2--2-2-7--5-5--0-2-2-0-2--2-2-5--7-7--0-0--2-2--|-5-|-7-|


Unfortunately I couldn't figure out the solo but if I do, I'll post it. 
                                                                                 x16
e-----------------------------------------------------------------------------|---|
B-----------------------------------------------------------------------------|---|
G--9---------------------------------16-16-14------14-14-16-14------16-16-14--|---|
D--9-9-7-4-2~----4~--2~--4~--2~--4~--16-16-14--2~--14-14-16-14--4~--16-16-14--|-2-|
A--7-9-7-4-2~----4~--2~--4~--2~--4~--14-14-12--2~--12-12-14-12--4~--14-14-12--|-2-|
E----7-5-2-0~--0-2~--0~--2~--0~--2~------------0~---------------2~------------|-0-|

                         x2
e-------------------------|
B-------------------------|
G-------------------------|
D--2-4-7--2-4-7--2-4-7-4--|
A--2-4-7--2-4-7--2-4-7-4--|
E--0-2-5--0-2-5--0-2-5-2--|

                               x3 x16 x16
e-------------------------------|---|---|
B-------------------------------|---|---|
G-------------9--9-9-11-11--11--|---|---|
D-9-7-9-7--7--9--9-9-11-11--11--|-7-|-9-|
A-9-7-9-7--7--7--7-7-9--9---9---|-7-|-9-|
E-7-5-7-5--5--------------------|-5-|-7-|

Outro                          x7
e-------------------------------|------------------------------|
B-------------------------------|------------------------------|
G---------------9-----9--11-11--|---------------9--------------|
D-----11-----7--------9--11-11--|-----11-----7--------2-2-2-4--|
A--9------9--------7--7--9--9---|--9------9--------7--2-2-2-4--|
E-------------------------------|---------------------0-0-0-2--|
Tap to rate this tab
 
# A B C D E F G H I J K L M N O P Q R S T U V W X Y Z