Song name
# A B C D E F G H I J K L M N O P Q R S T U V W X Y Z

Danko Jones - Sound Of Love tab

BANDA: DANKO JONES
MÚSICA: "SOUND OF LOVE"
ÁLBUM: BORN A LION


INTRO:
Riff 1:
(4x)
e||-------------------------------------------------------------||
B||-----------------------------5-------------------------------||
G||-4--6-6--4-6-6--4-6-6--4-6-4---6-----------------------------||
D||-------------------------------------------------------------||
A||-------------------------------------------------------------||
E||-------------------------------------------------------------||

       C#5
e||-4--4-4--4-4--4-4-||
B||-4--4-4--4-4--4-4-||
G||-6--6-6--6-6--6-6-||
D||-6--6-6--6-6--6-6-||
A||-4--4-4--4-4--4-4-||
E||-4--4-4--4-4--4-4-||



Verse:
    C#5                 B5         C#5
e||-4--4-4--4-4--4-4--4-2--2-2--2--4--4-4-||
B||-4--4-4--4-4--4-4--4-2--2-2--2--4--4-4-||
G||-6--6-6--6-6--6-6--6-4--4-4--4--6--6-6-||
D||-6--6-6--6-6--6-6--6-4--4-4--4--6--6-6-||
A||-4--4-4--4-4--4-4--4-2--2-2--2--4--4-4-||
E||-4--4-4--4-4--4-4--4-2--2-2--2--4--4-4-||
(2X)


Chorus:
(Loks like it's hard, it is relly easy)
  
e||-----------------------------------------------------------------------------||
B||-----------------------------------------------------------------------------||
G||-----------------------------------------------------------------------------||
D||-----------2-2h4-2------------------2-2h4-2------------------2-2h4-2---------||
A||------2-4-2-4-----4-2----------2-4-2-4-----4-2----------2-4-2-4-----4-2------||
E||0-2h4-----------------4-2-0-2h4----------------4-2-0-2h4----------------4-2--||

e||-----------------------||
B||-----------------------||
G||-----------------------||
D||-----------------------||
A||-----------------------||
E||-0-3-0-3-0-3-0-3-0-3-0-||




SOLO:
(espero que ajude)

e||-12-12-12-10--0-10--0-10-0-10h12-0-0--12-12-12-10--0-10--0-10-0-10h12-0-0--||
B||---------------------------------------------------------------------------||
G||---------------------------------------------------------------------------||
D||---------------------------------------------------------------------------||
A||---------------------------------------------------------------------------||
E||---------------------------------------------------------------------------||

e||---------------------------------------------------------------------------||
B||-12-12-12-10--0-10--0-10-0-10h12-0-0--12-12-12-10--0-10--0-10-0-10h12-0-0--||
G||---------------------------------------------------------------------------||
D||---------------------------------------------------------------------------||
A||---------------------------------------------------------------------------||
E||---------------------------------------------------------------------------||

e||---------------------------------------------------------------------------||
B||---------------------------------------------------------------------------||
G||------------------------------7------------------7-9(hold)-----------------||
D||-7-9-9-9--7-9-9--7-9-9--7-9-7--9--7-9-9-9--7-9-7---------------------------||
A||---------------------------------------------------------------------------||
E||---------------------------------------------------------------------------||
Tap to rate this tab
# A B C D E F G H I J K L M N O P Q R S T U V W X Y Z