Song name
# A B C D E F G H I J K L M N O P Q R S T U V W X Y Z

Danko Jones - Lovercall tab

Bass riff
G|---2-0----------------2-0-----------|
D|-------0------------------0---------|
A|-0-------0-----0-0--0-------0-----0-|
E|-----------1-3----------------1-3---|


Interlude
e|--------------------------------------|
B|--------------------------------------|
G|--------------------------------------|
D|-7-7-7-7--7--7-7-7-7--7-7-7-7--7--7-7-|
A|-7-7-7-7--7--7-7-7-7--7-7-7-7--7--7-7-|
D|-7-7-7-7--7--7-7-7-7--7-7-7-7--7--7-7-|


Chorus 1
e|----------------------------------------------|
B|----------------------------------------------|
G|----------------------------------------------|
D|-10-10-10-10--5--7-7-7-7--10-10-10-10--5--7-7-|
A|-10-10-10-10--5--7-7-7-7--10-10-10-10--5--7-7-|
D|-10-10-10-10--5--7-7-7-7--10-10-10-10--5--7-7-|



Chorus 2 (lead)
e|----------12-------13-12--------15-13-12-------13-12---------------------|
B|----13-------13----------13--------------13----------13------------------|
G|-14----14-------14----------14--------------14---------------------------|
D|-------------------------------------------------------------------------|
A|---------------------------------------------------------14-15-15-15--12~|
E|-------------------------------------------------------------------------|

If you lisen to the song u can easly figure out the Song Layout
Tap to rate this tab
# A B C D E F G H I J K L M N O P Q R S T U V W X Y Z