Song name
# A B C D E F G H I J K L M N O P Q R S T U V W X Y Z

Danko Jones - Type Of Girl tab

Type Of Girl
Danko Jones
Rock And Roll Is Black And Blue


  [Intro]
|-------------------------------------------------------------------|
|-------------------------------------------------------------------|
|-------------------------------------------------------------------|
|--------------------------------------------------4444444444444444-|
|--------------------------------------------------4444444444444444-|
|--------------------------------------------------2222222222222222-|

She's the type of girl all the other boys want to know



  [Verse1]
|----------------|-----------|     |------------------|
|----------------|-----------|     |------------------|
|----------------|-----------|     |------------------|
|-11-6-8-8--4--|-11--8--6--|  x4 |-6666666666666666-|
|-11-6--8-8--4--|-11--8--6--|     |-6666666666666666-|
|--9--4--6-6--2--|--9--6--4--|     |-4444444444444444-|

You want to know what's hiding 
behind those blue eyes, baby!

Don't care how good she looks

She's shook and you know it

I bet there's crazy going on in her mind


She'll be a helluva time but nickel 
and dime
And when the tables turn you know
 who's gonna get burned
Don't think I have to spell it out, no matter what's out of her mouth

If you listen you get what you deserve
Baby, baby, baby!



  [Chorus]
|--------------------------------|
|--------------------------------|
|--6-6---------------------------|
|--6-6----6-6----4-4----44444466-|  x2
|--4-4----6-6----4-4----44444466-|
|---------4-4----2-2----22112244-|

She's the type of girl all the other boys 
want to know
She looks good but you know it's all just
 for show


|--------------------------------------|----|
|--------------------------------------|----|
|--66666666----------------------------|-6--|
|--66666666-66666666-44444444-44444466-|-6--|
|--44444444-66666666-44444444-44444466-|-4--|
|-----------44444444-22222222-22112244-|----|

Yesterday she winked at me but
 nothing more




  [Verse2]
|----------------|-----------|     |------------------|
|----------------|-----------|     |------------------|
|----------------|-----------|     |------------------|
|-11-6-8-8--4--|-11--8--6--|  x4 |-6666666666666666-|
|-11-6--8-8--4--|-11--8--6--|     |-6666666666666666-|
|--9--4--6-6--2--|--9--6--4--|     |-4444444444444444-|

Don't you take it from me 
I only know what 
I'm talking about

I've had it done to me too many times

But it's too late when you realize


That there's something about her that
 makes you walk on the ledge
Don't try to skim on the lovin' this ain't no 
breakfast in bed
It's gonna take what you got and even that 
ain't enough
You're gonna live these words I said
Baby, baby, baby!



  [Chorus]
|--------------------------------|
|--------------------------------|
|--6-6---------------------------|
|--6-6----6-6----4-4----44444466-|  x2
|--4-4----6-6----4-4----44444466-|
|---------4-4----2-2----22112244-|

She's the type of girl all the other boys 
want to know
She looks good but you know it's all just 
for show


|--------------------------------------|
|--------------------------------------|
|--66666666----------------------------|
|--66666666-66666666-44444444-44444466-|  x2
|--44444444-66666666-44444444-44444466-|
|-----------44444444-22222222-22112244-|

Yesterday she winked at me but
 nothing more
She's the type of girl all the other boys want to know



  [Bridge]
|---------------------------------------------------------------------|
|---------------------------------------------------------------------|
|---------------------------------------------------------------------|
|-8888888888888888-4444444444444444-6666666666666666-4444444444444444-| x2
|-8888888888888888-4444444444444444-6666666666666666-4444444444444444-|
|-6666666666666666-2222222222222222-4444444444444444-2222222222222222-|

When you've got diamonds for eyes life lets
 you by
You always feel like she's cutting in front
 of the line, baby
When you've got diamonds for eyes you're
  always right
You always see everyone taking her side


|--------------|
|--------------|
|-6------------|
|-6----6----4--|
|-4----6----4--|
|------4----2--|

She might have what it takes, but with her I put on the brakes



  [Solo] (the beginning)
|---------------------|
|--6-----8------10-11-|
|----6------6---------|  x2
|---------------------|
|---------------------|
|---------------------|



  [Outro]
|----------------------------------|
|----------------------------------|
|--6-6-----------------------------|
|--6-6----6-6----44444444-44444466-|
|--4-4----6-6----44444444-44444466-|
|---------4-4----22222222-22112244-|

She's the type of girl all the other boys want to know


|--------------------------------------|
|--------------------------------------|
|--66666666----------------------------|
|--66666666-66666666-44444444-44444466-|  x4
|--44444444-66666666-44444444-44444466-|
|-----------44444444-22222222-22112244-|

Whoa-oh-oh-oha Whoa-oh-oh-oh-oh-oha
Whoa-oh-oh-oha Whoa-oh-oh-oh-oh-oha
Whoa-oh-oh-oh-oh-oh-oh-oh-oha
Whoa-oh-oh-oh-oh-oh-oha


|------------------------|
|------------------------|
|--66666666--------------|
|--66666666-66666666--4--|
|--44444444-66666666--4--|
|-----------44444444--2--|

She's the type of girl all the other boys want to know
Tap to rate this tab
# A B C D E F G H I J K L M N O P Q R S T U V W X Y Z