Song name
# A B C D E F G H I J K L M N O P Q R S T U V W X Y Z

Danko Jones - Lover Call tab

Tabbed by: Brandon Bordignon
Tuning: Standard

Bass riff 
G|----2-0-------------------2-0--------------| 
D|---------0----------------------0----------| 
A|-0---------0------0-0--0---------0-------0-| 
E|--------------1-3--------------------1-3---| 

Interlude 
e|---------------------------------------------|
B|---------------------------------------------|
G|---------------------------------------------|
D|--6-6-6-6𧛲-6-6-6-----6-6-6-6𧛲-6--------|
A|--6-6-6-6𧛲-6-6-6-----6-6-6-6𧛲-6--------|
E|--4-4-4-4𦴘-4-4-4-----4-4-4-4𦴘-4--------|

Chorus 1
e|---------------------------------------------------------------|
B|---------------------------------------------------------------|
G|---------------------------------------------------------------|
D|--9-9-9-9------4-------6-6----------------------------------|
A|--9-9-9-9------4-------6-6----------------------------------|
E|--7-7-7-7------2-------4-4----------------------------------|

Chorus 2 (lead) 
e|------------12--------13-12-----------15-13-12-------------13-12-------------------------------| 
B|-----13--------13-------------13-------------------13----------------13------------------------| 
G|-14-----14--------14-------------14--------------------14--------------------------------------| 
D|-----------------------------------------------------------------------------------------------| 
A|-------------------------------------------------------------------------------14-15-15-15--12~| 
E|-----------------------------------------------------------------------------------------------|


/  slide up
| \  slide down
| h  hammer-on
| p  pull-off
| ~  vibrato
| +  harmonic
| x  Mute note
Tap to rate this tab
 
# A B C D E F G H I J K L M N O P Q R S T U V W X Y Z