Guitaretab - guitar tabs
Song name
# A B C D E F G H I J K L M N O P Q R S T U V W X Y Z

Danko Jones - Baby Hates Me tab

  DANKO JONES
  -Baby Hates Me


  Intro: (tip: good to play with your thumb and index-finger)
e||--------------------------------------------------------|
b||--------------------------------------------------------|
g||--8-8-8-8--8-8-8-8--8-8-8-8--8-6-6-8--------------------|   (x 4)
d||--6-6-6-6--6-6-6-6--6-6-6-6--6-6-6-6--------------------|
a||--------------------------------------------------------|
E||--------------------------------------------------------|

  after two times
e||--------------------------------------------------------|
b||--------------------------------------------------------|
g||--6-6---4-4---4-4---------------------------------------|   (x 2)
d||--6-6---4-4---2-2---4-4-4-4--6~-------------------------|
a||--4-4---2-2---2-2---4-4-4-4--6~-------------------------|
E||--------------------2-2-2-2--4~-------------------------|



   (this is how Danko plays it!)
e||--------------------------------------------------------|
b||--------------------------------------------------------|
g||--------------------------------------------------------|
d||----4-6----------4-6----------4-6----------4-6----------|
a||--2-4-6--------2-4-6--------2-4-6--------2-4-6----------|
E||--2-2-4--------2-2-4--------2-2-4--------2-2-4----------|


[ Tab from: http://www.guitaretab.com/d/danko-jones/71708.html ]
  Verse:
e||---------------------------------------------------------|
b||---------------------------------------------------------|
g||--------------------------------6------------------------|   (x 4)
d||----4-6----------4-6----------4-6----------4-6-----------|
a||--2-4-6--------2-4-6--------2-4-4--------2-4-6-----------|
E||--2-2-4--------2-2-4--------2-2-x--------2-2-4-----------|



  Bridge:
e||---------------------------------------------------------|
b||--------------------------------7-7-7--------------------|
g||------4b------------------------6-6-6--6-6-6-6-----------|
d||----4----6-6-6-6-6----(x 7)-----4-4-4--6-6-6-6-----------|
a||--6-----------------------------4-4-4--4-4-4-4-----------|
E||---------------------------------------------------------|



  Chorus:
e||--------------------------------------------------------|
b||--------------------------------------------------------|
g||----------9-9--------9----------------------------------|   (x 4)
d||--6--9-9--9-9--------9-9--4/-6--------------------------|
a||--6--9-9--7-7--------7-9--4/-6--------------------------|
E||--4--7-7--7-7--------7-7--2/-4--------------------------|

e||--------------------------------------------------------|
b||--------------5-5---------------------------------------|
g||--6-6---4-4---4-4---------------------------------------|
d||--6-6---4-4---2-2---4-4-4-4--6~-------------------------|
a||--4-4---2-2---2-2---4-4-4-4--6~-------------------------|
E||--------------------2-2-2-2--4~-------------------------|

  
   -The interlude is basically the same as the "Intro"
   
   -Listen the song while playing to get the timing and structure right
  
  
  Damn this song is tight! It's fun to sing while playing this...
  makes it more challenging! I tabbed this myself btw.
  You can add the demp/mute notes in the chorus as you like if you want.
 (Danko may play the intro riff from the A-strings 11th fret, but who cares!)
Related for Baby Hates Me tab
Advertisement will be closed in 10 seconds