Song name
# A B C D E F G H I J K L M N O P Q R S T U V W X Y Z

Danko Jones - Sticky Situation tab

Standard Tuning
^ = bend
v = vibrato

Verse
e-------------------------------------------------------------------------------------------------------|
B-------------------------------------------------------------------------------------------------------|
G-------------------------------------------------------------------------------------------------------|
D----7-9----7-9----7-9----7-9----7-9----2-4----2-4----2-4----2-4--2-4--7-9----7-9----7-9----7-9----7-9--|
A----7-9----7-9----7-9----7-9----7-9----2-4----2-4----2-4----2-4--2-4--7-9----7-9----7-9----7-9----7-9--|
E----5-7----5-7----5-7----5-7----5-7----0-2----0-2----0-2----0-2--0-2--5-7----5-7----5-7----5-7----5-7--|

Chorus
e-------------------------------------------------------------------------------------------------------------------------|
B-------------------------------------------------------------------------------------------------------------------------|
G--99999-9-9-7777-7-7-----------------------------------------------------------------------------------------------------|
D--99999-9-9-7777-7-7-5-7-5-5-7-5-5-7-10-10-7--5-7-5-5-7-5-5-7-10-10-7--5-7-5-5-7-5-5-7-10-10-7--5-7-5-5-7-5-5-7-10-10-7--|
A--77777-7-7-5555-5-5-7-9-7-7-9-7-7-9-12-12-9--5-7-5-5-7-5-5-7-10-10-7--5-7-5-5-7-5-5-7-10-10-7--5-7-5-5-7-5-5-7-10-10-7--|
E---------------------5-7-5-5-7-5-5-7-10-10-7--5-7-5-5-7-5-5-7-10-10-7--5-7-5-5-7-5-5-7-10-10-7--5-7-5-5-7-5-5-7-10-10-7--|

Solo
e-------------------------------------------------------------------------------------------------|
B-----------------------------------------------------------------10-8-----10-8-------------------|
G-------------------------------9-7-9-7-9-7---7---7---9-7-9-7-9-7------9-7------9-7-9-9-9-7-------|
D--4--------44444445678999999999------------9---9---9---------------------------------------9-7-9-|
A--4----------------------------------------------------------------------------------------------|
E--2----------------------------------------------------------------------------------------------|
   *let ring
e----------------------------------------------------------------------------------------------------------------|
B----------------------------------------------------------------------------------------------------------------|
G------------14---16---14-14-14-14-14-14-14-14-16-16-16-16-16-16-16-14-14-14-14-14-14-14-14-16-16-16-16-16-16-16-|
D--4----7----14---16---------------------------------------------------------------------------------------------|
A----------------------------------------------------------------------------------------------------------------|
E----------------------------------------------------------------------------------------------------------------|
Tap to rate this tab
# A B C D E F G H I J K L M N O P Q R S T U V W X Y Z