Song name
# A B C D E F G H I J K L M N O P Q R S T U V W X Y Z

Danko Jones - Dont Fall In Love tab

-------------------------------------------------------------------------------
			     Don't Fall In Love - Danko Jones
-------------------------------------------------------------------------------
Tabbed by: Hellmankf
Email: sebastiankf@hotmail.com

Tuning: normal

Intro/Verse
Please don't look around for anybody else...
e|---------------------------------------------------------------------------|
B|-----------------------------------variation-in-some-parts-----------------|
G|---------------------------------------------------------------------------|
D|-----6-6-6-6-6--------------------6-6-6-6-6--------------------------------|
A|-----4-4-4-4-4--6-6-6-/-8-8-------4-4-4-4-4--6-/-8-8--6-/-8-8--------------|
E|----------------4-4-4-/-6-6------------------4-/-6-6--4-/-6-6--------------|

and when the radio....
e|---------------------------------------------------------------------------|
B|---------------------------------------------------------------------------|
G|---------------------------------------------------------------------------|
D|--------------------6------------------------------------------------------|
A|------6-6-6--8-8-8--4------------------------------------------------------|
E|------4-4-4--6-6-6---------------------------------------------------------|

It's something that i'm never gonna tell you...
e|-------------------------------|
B|-------------------------------|
G|-------------------------------|
D|-------------------------------|
A|-----4-4-4-4-4-4--6-6-6-6-6-6--|
E|-----2-2-2-2-2-2--4-4-4-4-4-4--|

e|---------------------------------------------------------------------------|
B|---------------------------------------------------------------------------|
G|---------------------------------------------------------------------------|
D|-----------6-6-6-6-6-------------------------------------------------------|
A|-----------4-4-4-4-4--6-/-8-8--6-/-8-8-------------------------------------|
E|----------------------4-/-6-6--4-/-6-6-------------------------------------|
    pm       x x x x x  x   x x  x   x x

| /  slide up
| x  Mute note
===============
Tap to rate this tab
# A B C D E F G H I J K L M N O P Q R S T U V W X Y Z