Song name
# A B C D E F G H I J K L M N O P Q R S T U V W X Y Z

Danko Jones - When Will I See You tab

-------------------------------------------------------------------------------
			     When Will I See You - Danko Jones
-------------------------------------------------------------------------------
Tabbed by: Hellmankf
Email: sebastiankf@hotmail.com

Tuning: Drop D

Verse
e|---------------------------------------------------------------------------|
B|---------------------------------------------------------------------------|
G|---------------------------------------------------------------------------|
D|-------10-10-7-7-10-10-7-9-------------------------------------------------|
A|-------10-10-7-7-10-10-7-9-------------------------------------------------|
D|-------10-10-7-7-10-10-7-9-------------------------------------------------|

Chorus
e|---------------------------------------------------------------------------|
B|---------------------------------------------------------------------------|
G|---------------------------------------------------------------------------|
D|---9-9------------------7-7------------------------------------------------|
A|---7-7--7-7--10-10-10---5-5--5-5--9-9-9------------------------------------|
D|--------7-7--10-10-10--------5-5--9-9-9------------------------------------|

Bridge
e|---------------------------------------------------------------------------|
B|---------------------------------------------------------------------------|
G|---------------------------------------------------------------------------|
D|---------------------------------------------------------------------------|
A|---3---3---3---2---2---2---3---3---3---2---2---2---5---5---5---3---3---3---|
D|-0---0---0---0---0---0---0---0---0---0---0---0---0---0---0---0---0---0---0-|
   x x x x x x x x x x x x x x x x x x x x x x x x x x x x x x x x x x x x x

then...
e|--------------------------------------------------------------------------|
B|--------------------------------------------------------------------------|
G|---------------------(-----------repeat------as-------needed----)---------|
D|---10-10-10-10-10----10-10-7-7-10-10-7-9--x-x-x-x-x--10-10-7-7-10-10-7-9--|
A|---10-10-10-10-10----10-10-7-7-10-10-7-9--x-x-x-x-x--10-10-7-7-10-10-7-9--|
D|---10-10-10-10-10----10-10-7-7-10-10-7-9--x-x-x-x-x--10-10-7-7-10-10-7-9--|

| x  Mute note


note: the first guitar is missing, i play rythm guitar, thats why. and you have to 
it out the timings, don't be too lazy.
===============================================================================
Tap to rate this tab
# A B C D E F G H I J K L M N O P Q R S T U V W X Y Z