Song name
# A B C D E F G H I J K L M N O P Q R S T U V W X Y Z

Danko Jones - Finger tab

Main Riff
e|-------------------------------------------------------------------------|
B|-------------------------------------------------------------------------|
G|-------------------------------------------------------------------------|
D|------5-5-2-----5--5-2---5--5-2-----5-5-2--------------------------------|
A|------5-5-2-----5--5-2---5--5-2-----5-5-2--------------------------------|
E|------3-3-0-----3--3-0---3--3-0-----3-3-0--------------------------------|

You get...The Finger!
e|-------------------------------------------------------------------------|
B|-------------------------------------------------------------------------|
G|-------------------------------------------------------------------------|
D|-----8-8-8-8-8-7-5-2---5--5-2---5--5-2-----------------------------------|
A|-----8-8-8-8-8-7-5-2---5--5-2---5--5-2-----------------------------------|
E|-----6-6-6-6-6-5-3-0---3--3-0---3--3-0-----------------------------------|
     
Bridge
e|-------------------------------------------------------------------------|
B|-------------------------------------------------------------------------|
G|-------------------------------------------------------------------------|
D|--------2---------2---------2---------2--2--2--2--2--2--2--2-------------|
A|--8-7-5-2---8-7-5-2---8-7-5-2---8-7-5-2--2--2--2--2--2--2--2-------------|
E|--6-5-3-0---6-5-3-0---6-5-3-0---6-5-3-0--0--0--0--0--0--0--0-------------|

i think its easier to play it in drop D
Tap to rate this tab
# A B C D E F G H I J K L M N O P Q R S T U V W X Y Z