Guitaretab - guitar tabs
Song name
# A B C D E F G H I J K L M N O P Q R S T U V W X Y Z

Danko Jones - Word Is Bond tab

BAND:DANKO JONES 
SONG:WORD IS BOND
ALBUM: BORN A LION 
TUNNING:STANDART


Main Riff:
(From the intro to the chorus)
       G#       B5
E||-4-4-4-4--2-2-2-2----------||
B||-4-4-4-4--2-2-2-2----------||
G||-5-5-5-5--4-4-4-4----------||
D||-6-6-6-6--4-4-4-4----------||
A||-6-6-6-6--2-2-2-2----------||
E||-4-4-4-4--2-2-2-2----------||
[ Tab from: http://www.guitaretab.com/d/danko-jones/78137.html ]
Chorus:
     ?    B5  ?   B5  G#   ?   B5 G# 
E||-x-x-2-2-2-x-2-2-2-4---x-x-2-2-4--||
B||-x-x-2-2-2-x-2-2-2-4---x-x-2-2-4--||
G||-0-0-4-4-4-0-4-4-4-5---0-0-4-4-5--||
D||-0-0-4-4-4-0-4-4-4-6---0-0-4-4-6--||
A||-0-0-2-2-2-0-2-2-2-6---0-0-2-2-6--||
E||-0-0-2-2-2-0-2-2-2-4---0-0-2-2-4--||

In the last īpart of the chorus, around 1:50,
Danko palys E5 intead of G#.
    E5
E||-7-||
B||-7-||
G||-9-||
D||-9-||
A||-7-||
E||-7-||


Last part:
It's only the bass, and Danko plays along, it goes like this:
E||---------------------------||
B||---------------------------||
G||---------------------------||
D||---------------------------||
A||-----------------------2-2-||
E||-4-2-4-2-4-2-4-2-4-2-4-----||



I hope it helps, if you like, please, rate it.


Related for Word Is Bond tab
Word Is Bond chords by Danko Jones